Oops, an error
Loading. Please wait.

Canon Tab

version 1
version 1

Intro

Whole song

Interactive

178,424 views 159 this week
37 commentsread comments
1 2 3 4 5
excellent!
x 53
add to favorites
launch autoscroll
font size
0
reset
how to read this tab
guitar tuner
Tab Pro tools
  • play this tab
  • loop segment
  • change instrument
  • show fretboard
  • metronome
Autoscroll
slow
fast
+/-
esc
set tempo
stop
Contributor
Difficulty
advanced
Artist-Trace Bundy
Song-Canon

   This is one of the most amazing versions of this song, and no tabs!
It is a very hard song to tab so please be gracious on those 
votes but for now enjoy :)

       
Tuning (Dadgad)

E- Whole step down   D
B- Whole step down   A
G-                   G
D-                   D
A-                   A
E- Whole step down   D

Capo- 2nd fret
     
   Now since theres a capo, all of the numbers
are transcribed like there is no capo. or else it 
would be very confusing. What i mean is that if you
see an open note like (0) it is actually on 2 because
the capo is on 2.

Intro (0:00-0:11)
D--4----2----0----------------------------------|
A-----------------4----2----0---------4----p0---|
G--------------------------------4--------------|
D-----------------------------------------------|
A------(0)--------------------------------------|
D--0----7----9\---4----5----0----5----7---------|



Intro Cont.(0:12-0:24)
D--4---po4p2po-2--po---------------------------------------------5p4po2po--|
A---------------------4/5----po5\4p2po4--po----4p2-po-2h4h5--po------------|
G--------------------------------------------------------------------------|
D--------------------------------------------4-----------------------------|
A--------------------------------------------------------------------------|
D--0-----------7-----------9\---------4----------5---------0---------------|


D---------5-------------------|
A------5po---------7po7/12----|
G----4-----------6------------|
D-----------------------------|
A-----------------------------|
D--5----------7---------------|

Verse still cont. (0:26-
D-----------4--------------------------------------------------------------|
A---------5-----------2p0-4--------------5----------4----------5-----------|
G-------2----------------------------4p0----------2----------4-------------|
D-------------------2------------2/4------------4----------5---------------|
A---0------------7------------9--------------4-----------5-----------------|
D---0------------7------------9--------------4-----------5-----------------|

D---------------12*----------------------|---------5------------7---pp0----|
A-----------12*------------5----------7--|------------------7p0------------|
G------------------------4----------6----|-------7-------------------------|
D-------12*------------5----------7------|-----5----------7----------------|
A---0----------------5---------7---------|---5----------7------------------|
D---0----------------5---------7---------|---5----------7------------------|
                                      The last part goes like this instead

This part is the most fun to play
once you get the hang of the hammer 
on pull off technique

Verse 2
D---7-p0-4p05p07--p04p05p07--p0---------2p04p05-p0-4-p0------2p04p0--------|
A-------------------------------2p04p05------------------5p0---------------|
G--------------------------------------------------------------------------|
D--------------------------------------------------------------------------|
A-------------------------7------------------------9-----------------------|
D---0---------------------7------------------------9-----------------------|



D--------------------------------------------------------------------------|
A--------------------------------------------------------------------------|
G-----------2p0-4p0-2p0-----2p0---------2--p0--4p0-2-p0--------------------|
D---4p05p0--------------5p0-----4p0-5p0-----------------4p0-2p0--4p0-2p0---|
A-----------4-------------------------------5--------------------0---------|
D-----------4-------------------------------5--------------------0---------|



D-------------------------------------------------------------------------|
A-------------------------------------------4p0-5p0----------4p0-5p0------|
G-----------------2p0-4-p0----4p0-2p0-4--p0----------2p0-4p0--------------| 
D-----2p0-4p0-5p0---------------------------------------------------------| 
A-5p0--------------------5---------------------------7--------------------| 
D------------------------5---------------------------7--------------------|



D--2p0-4p0-5/7---|
A----------------|
G----------------|x2
D----------------|
A----------------|
D----------------|

The second part is the part that sounds sooo good
(P.S, if you are a guy, this will definately get 
 chicks....lol)

Verse 2 (pt. 2)
D--4-p0------2p0--4-p0--2p0------2p0---------2p0-4p0-2p0-------------------|
A--------5p0-----------------5p0-----4p0-5p0-------------5p0-4p0-5---------|
G--------------------------------------------------------------------------|
D--------------------------------------------------------------------------|
A--0-----------------------------7-------------------------------9---------|
D--0-----------------------------7-------------------------------9---------|


D--------------------------------------------------------------------------|
A--2p0-4p0-5-p0---------------------------------5p0-4p0-5p0--2--5p0-4p0--2-|
G--------------------------------------------------------------------------|
D----------------------2p0-4p0-5p0-4p0-2--p0-------------------------------|
A------------------5p0---------------------------------------5-------------|
D--------------------------4---------------------------------5-------------|


D--------------------------------------------------------------------------|
A-----------------------------------4p0-5-p0-2-p0--5p0-4p0-5-p0-4\2--------|
G--2p0------2p0-------------2p0-4p0----------------------------------------|
D-------5p0-----5p0-4p0-5p0------------------------------------------------|
A-----------0--------------------------------5-----------------------------|
D-----------0--------------------------------5-----------------------------|


D----------------------------------------|
A--4h5p4p0--5/7\5p0--4h5p4p0-2p0--4p0----|
G----------------------------------------|  phew thats a fast part
D----------------------------------------|  once you memorize it
A--7-------------------------------------|  its all muscle memory :)
D--7-------------------------------------|


Verse 3
D--4p0-2h4-p0--------------------------------------------------------------|
A---------------7p-4h5h7-p4p0-5p-2h4h5-p2p0-4p0-2h4-p0---------------------|
G--------------------------------------------------------4p0-2h4-p0--------|
D--------------------------------------------------------------------------|
A--0------------7-------------9-------------4------------5-----------------|
D--0------------7-------------9-------------4------------5-----------------|


D-------------------------------------------2p0--|
A--------------5p0---------------4p0--2h4/5------|
G--2p0-----2p0-------4p02h4-p0-------------------|
D------4h5---------------------------------------|
A--0-----------------5-----------7---------------|
D--0-----------------5-----------7---------------|


2nd time
D--4p0-2h4-p0--------------------------------------------------------------|
A---------------7p-4h5h7-p4---5p-2h4h5-p2---4p0-2h4-p0---------------------|
G--------------------------------------------------------4p0-2h4-p0--------|
D--------------------------------------------------------------------------|
A--0------------7-------------9-------------4------------5-----------------|
D--0------------7-------------9-------------4------------5-----------------|


D--------------------------------------------------------------------|
A--------------5p0---------------4p0--2h4-p2p0--4h5-p4p0--5h7-p5p0---|
G--2p0-----2p0-------4p02h4-p0---------------------------------------|
D------4h5-----------------------------------------------------------|
A--0-----------------5-----------7-----------------------------------|
D--0-----------------5-----------7-----------------------------------|


D--2h4-p2p0--4h5-p4p0-5/7-------------------------|
A-------------------------------------------------|
G-------------------------------------------------|
D-------------------------(Slide your finger------|  Mores coming soon :)
A--------------------------all the way up the-----|
D------------------------------Fretboard )--------|

You Pick The low D string a lot going into this part
This is hard to finger, it sounds like two guitars, but
it is in fact one

Interlude (2:17)
D-4---0-2-4---0-----|-----------------|---------------|---------------|
A-------------------|-7---4-5-7---4---|-5---2-4-5---2-|-4---0-2-4---0-|
G-------------------|-----------------|---------------|---------------|
D-------------------|-----------------|---------------|---------------|
A-------------------|-0-0-0-0-0-0-0-0-|-2-2-2-2-2-2-2-|---------------|
D-0-0-0-0-0-0-0-0-0-|-----------------|---------------|-4-4-4-4-4-4-4-|
  ....................................................................

D-----------------|-------------------|-----------------|-------------0|
A-----------------|--------------5p0--|-----------------|-4---0-2-4/7--|
G-4---0-2/4---0---|-2-----0-2----2----|-4---0-2-2/4---0-|--------------|
D-----------------|-----4--------0----|-----------------|--------------|
A-----------------|-------------------|-----------------|-0-0-0-0-0-0-0|
D-5-5-5-5-5-5-5-5-|-0-0-0-0-0-0-0-0-0-|-5-5-5-5-5-5-5-5-|--------------|
  .....................................................................

2nd time
D-4---0-2-4---0-----|-----------------|---------------|---------------|
A-------------------|-7---4-5-7---4---|-5---2-4-5---2-|-4---0-2-4---0-|
G-------------------|-----------------|---------------|---------------|
D-------------------|-----------------|---------------|---------------|
A-------------------|-0-0-0-0-0-0-0-0-|-2-2-2-2-2-2-2-|---------------|
D-0-0-0-0-0-0-0-0-0-|-----------------|---------------|-4-4-4-4-4-4-4-|
  ....................................................................

D-----------------|-------------------|-----------------|-------------0|
A-----------------|--------------5p0--|-----------------|-4---0-2-4/7--|
G-4---0-2/4---0---|-2-----0-2----2----|-4---0-2-2/4---0-|--------------|
D-----------------|-----4--------0----|-----------------|--------------|
A-----------------|-------------------|-----------------|-0------------|
D-5-5-5-5-5-5-5-5-|-0-0-0-0-0-0-0-0-0-|-5-5-5-5-5-5-5-5-|--------------|
  ........................................................

Now this part has a lot of finger picking
Which is sort of my weak spot....
Now i know that i didnt hit every note 
correctly. but i know i got the fingering down
So heres the hard part.....(for me)
Thanks you deathmore for helping me out on this one

(2:47-3:24)
D--7-----7-----7----7----9---7---5----4-----4-----4----4---5---4----2p0-|
A----0-----0-----0----0----0---0---0----0-----0-----0----0---0---0------|
G------7-----7----------------------------0-----0-----------------------|
D-----------------------------------------------------------------------|
A------------------(0)----------------2---------------------------------|
D--0----------------7----------------------------------4----------------|


D--0---------------------5*---|--0-----------------------7*------------|
A------3--2--3---3/5--5-------|-----3--2---3---3/4--4/7----------------|
G-----------------------------|----------------------------------------|
D-----------------------------|----------------------------------------|
A-----------------------------|----------------0----0------------------|
D--5------5----5-0----0-------|--5----5---5----------------------------|


2nd time
D--7-----7-----7----7----9---7---5----4-----4-----4----4---5---4----2p0-|
A----0-----0-----0----0----0---0---0----0-----0-----0----0---0---0------|
G------7-----7----------------------------0-----0-----------------------|
D-----------------------------------------------------------------------|
A------------------(0)----------------2---------------------------------|
D--0----------------7----------------------------------4----------------|


D--0---------------------5*---|--0------------|
A------3--2--3---3/5--5-------|-----3--2---3--|
G-----------------------------|---------------|then go into the cool
D-----------------------------|---------------|fast part
A-----------------------------|---------------|
D--5------5----5-0----0-------|--5----5---5---|



D-----------0-----0-------0------0--------|
A--2h4--2h4---4/5----5/7-----7/9---9/10---|
G-----------------------------------------|
D-----------------------------------------|
A--0----0-----0------0-------0-----0------|
D-----------------------------------------|

(3:19-3:23)
Fast Part!
D-----------------------------------------------------------|
A--9h10p9p0--7h9p7p0--5h7p5p0--4h5p4p0--2h4p2p0-------------|
G------------------------------------------------2h4p2p0----|
D-----------------------------------------------------------|
A--0--------------------------------------------------------|
D-----------------------------------------------------------|

D-----------------|
A-----------------|
G-----------------|Phew now your almost done!
D--2h4p2p0--------|
A------------4/5--|
D-----------------|

(3:23)
Now back to verse 1
D-----------4--------------------------------------------------------------|
A---------5-----------2p0-4--------------5----------4----------5-----------|
G-------2----------------------------4p0----------2----------4-------------|
D-------------------2------------2/4------------4----------5---------------|
A---0------------7------------9--------------4-----------5-----------------|
D---0------------7------------9--------------4-----------5-----------------|

D---------------12*----------------------|---------5------------7---pp0----|
A-----------12*------------5----------7--|------------------7p0------------|
G------------------------4----------6----|-------7-------------------------|
D-------12*------------5----------7------|-----5----------7----------------|
A---0----------------5---------7---------|---5----------7------------------|
D---0----------------5---------7---------|---5----------7------------------|
                                             Last part goes like this  ^


Ending chord which is O so cool
Now the 14 you hammer on w/ your right hand
and same with the four, watch the video and youll understand
(3:50-3:55)
D---7--h14----p7---p4---p0----12*---|--------------------|
A---0-------------------------12*---|-Live he ends with--|
G---7-------------------------------|--------2---down----|
D---0-------------------------------|--------4--stroke---|
A---0-------------------------------|--------0-----------|
D---0-------------------------------|--------0-----------|


I like to end with
D--0-------|
A--0-------|
G--2/7-----|
D--0-------|
A--0-------|
D--0-------|


Guitar Legend
Slide up-        /
Slide down-      \
Hammer on-       H
Pull off-        P
Harmonics-       *
Palm mute-       ............
Optional note-  ( )




     (.)  (.)
  |           |
  |      /    |
  |           |
   \         /
    \_ _ _ _/
     
So there you go, took me a while but its finally done!
If you see mistakes plzzz feel free to message me or leave coments
I hope this tab wasnt too confusing :/
But im pretty sure its accurate :)  God bless
comments
print report bad tab
37 comments total. Showing first comments.
0 reply
bJoelFan13 wrote on November 15 2006, 07:31 pm

dude, keep going i must have this tab lol....great stuff...perfect

0 reply
bJoelFan13 wrote on November 15 2006, 10:23 pm

next part starts with...
D-------7p0h4h5----7p0h4h5----------------------------------------|
A------------------------------------------------------------------|
G------------------------------------------------------------------|
D------------------------------------------------------------------|
A------------------------------------------------------------------|
D------------------------------------------------------------------|

0 reply
AsILayLiving wrote on November 16 2006, 12:36 am

dont worry i got the whole song tabbed out, im jus too lazy to do it. lol

I want to post or [tab]
guest
You may want to rate the tab now too:
select rating
Please do not post tabs as comments. Select "correction" instead!