Oops, an error
Loading. Please wait.

I Want It That Way Tab

11,900 views 6 this week
no commentswrite comment
1 2 3 4 5
accurate
x 3
add to favorites
launch autoscroll
font size
0
reset
how to read this tab
guitar tuner
Autoscroll
slow
fast
+/-
esc
set tempo
stop
Help us to improve Ultimate-Guitar.com Take our survey!
×
Difficulty
intermediate
=========================================================
       I WANT IT THAT WAY - Trace Bundy
=========================================================

This is my first tab, and I believe it is right, although I'm sure there are some
subtleties missing
that Trace adds to his version.

Watch the video at http://www.youtube.com/watch?v=WavZ1rH6wCc to help with the
timing. Good luck!

Tabbed by: Quinn Franklin
email: wqfranklin@gmail.com

Tuning: Standard

Legend
------
	h= tap for 12th fret harmonics
	/= hammer on/pull off


Intro

|-----------------------------------|-----------------------------------|
|----------0-----------1-/-0--------|----------0------------------------|
|--------------0---------------0----|----------------------0------------| x3
|------2-----------2----------------|------2-----------2-----------2----|
|-----------------------------------|--3--------------------------------|
|--0--------------------------------|--------------3-----------2--------|


|-----------------------------------|-----------------------------------|
|----------0-----------1-/-0--------|----------0------------------------|
|--------------0---------------0----|----------------------0-------0----|
|------2-----------2----------------|------2----------------------------|
|-----------------------------------|--3--------------------------------|
|--0--------------------------------|--------------3-----------3--------|


|-----------------------------------|
|------0----------------------------|
|----------0------------------------|
|--------------2-------2-------2----|
|-----------------------------------|
|--3---------------3-------2--------|

Verse

|----------x------------------------|----------x---------------x--------|
|----------x---------------0--------|--1-------x---------------x--------|
|--0-----0-x-0-0-0-0---0-------0----|--0-------x---0-------0---x-0-0-0--|
|--0/2-2---x-2-2-2-0/2--------------|--2-------x---0-------0---x-0-0-0--|
|--0/2-----x-2-2-2-0/2--------------|--3-------x-----------2---x-2-2-2--|
|--0-------x-0-0-0-0----------------|----------x---3-------3---x-3-3-3--|

       h   h
|----------0---x-0------------------|----------x---------------x--------|
|----------0---x-0---------0--------|--1-------x---------------x--------|
|--0-------0---x-0-0---0-------0----|--0-------x---0/2/0-------x-0-0-0--|
|--0/2-0/2-----x-2-0/2--------------|--2-------x---0-----------x-0-0-0--|
|--0/2-0/2-----x-2-0/2--------------|--3-------x---------------x-2-2-2--|
|--0---0-------x-0-0----------------|----------x---3-----------x-3-3-3--|

       h   h
|----------0---x-0------------------|----------x------------------------|
|----------0---x-0---------0--------|--1-------x------------------------|
|--0-------0---x-0-0---0-------0----|--0-------x---0--------------------|
|--0/2-0/2-----x-2-0/2--------------|--2-------x---0--------------------|
|--0/2-0/2-----x-2-0/2--------------|--3-------x------------------------|
|--0---0-------x-0-0----------------|----------x---3-------3---2---0----|

Chorus

|-----------------------------------|-----------------------------------|
|--------------------------0--------|----------x---------------0---3----|
|----------x---0--------------------|--2-------x---0--------------------|
|--2-------x------------------------|--0-------x---0--------------------|
|--2-------x-----------2------------|-----------------------------------|
|----------x-------0-----------0----|----------x---3--------------------|


|------0----------------------------|-----------------------------------|
|----3-----1-------0----------------|--------------------------0---3----|
|---0------------------2---0--------|----------x---0--------------------|
|--2--------------------------------|--4-------x------------------------|
|-3------------3--------------------|----------x------------------------|
|------------------------------2----|----------x---3--------------------|


|------0----------------------------|-----------------------------------|
|----3-----1-------0----------------|----------0---------------0---3----|
|---0------------------2---0--------|-----------------0-----------------|
|--2--------------------------------|--4--------------------------------|
|-3------------3--------------------|-----------------------------------|
|------------------------------2----|---------------3-------------------|


|------0----------------------------|-----------------------------------|
|----3-----1---0---0----------------|-----------------------------------|
|---0------------------2---0--------|--2-------x---4-------2---0--------|
|--2--------------------------------|----------x-------------------0----|
|-3---------------------------------|----------x------------------------|
|--------------------------------2--|----------x---3--------------------|


|-----------------------------------|--------------------------x--------|
|--------------------------0--------|----------x---------------x--------|
|----------x---0--------------------|--2-------x---0-------0---x-0-0-0--| Back to verse
|--2-------x------------------------|--0-------x---0-------0---x-0-0-0--|
|--2-------x-----------2------------|--------------------------x-2-2-2--|
|----------x-------0-----------0----|----------x---3-------3---x-3-3-3--|
Suggest correction
What's this?
You can suggest a correction to this tab. Community and Mods will review your correction and vote to approve or reject it.
comments
We did not receive enough feedback on this tab! Please rate:
print report bad tab
1 2 3 4 5
guest
You may want to rate the tab now too:
select rating
Please do not post tabs as comments. Select "correction" instead!