Oops, an error
Loading. Please wait.

Control Tab

958 views 1 this week
no commentswrite comment
1 2 3 4 5
please rate
add to favorites
launch autoscroll
font size
0
reset
how to read this tab
guitar tuner
Autoscroll
slow
fast
+/-
esc
set tempo
stop
Help us to improve Ultimate-Guitar.com Take our survey!
×
Author
Difficulty
novice
      h - hammer on
      p - pull off
      b - bend string up
      r - release bend
      / - slide up
      \ - slide down
      v - vibrato (sometimes written as ~)
      t - right hand tap
      x - play 'note' with heavy damping

Song: Control (Juno Reactor Instrumental)
Artist: Traci Lords/ Juno Reactor

Official website: http://www.tracilords.com/media.php

This song is actually a techno song that has no actual guitar in it but the main riff is 
cool that I tabbed it for guitar. I think it sounds even better than the guitar-less 
The song appeared on the soundtrack for Mortal Kombat: The Movie.

Note: Intro, Verse, and Main Riff are all repeated numerous times throughout the song.

Intro
|-----------------------------|
|-----------------------------|
|-----------------------------|
|---0-0--0-0--0-0--0-0--1--1--|
|-----------------------------|
|-----------------------------|

Main Riff
|-------------------------------------------------------|
|-------------------------------------------------------|
|-------------------------------------------------------|
|--3-—3-3--3--3-3--3--4--6--3--3-3--3--3-3--3--3--2--1--|
|--3—-3—3--3--3-3--3--4--6--3--3-3--3--3-3--3--3--2--1--|
|--3—-3-3--3--3-3--3--4--6--3--3-3--3--3-3--3--3--2--1--|
      x x     x x              x x     x x

|-----------------------------------------|
|-----------------------------------------|
|-----------------—-----------------------|
|--3---3--3-3--3--4--6--3-----------------|
|--3---3--3-3--3--4--6--3-----------------|
|--3---3--3-3--3--4--6--3----2-2--1-1—0~--|
          x x
Verse
|---------------------------------------------------|
|---------------------------------------------------|
|--0-0-1-4-1--—0-0-1-4-1---0-0-1-4-1---0-3-0-5-0-3--|
|---------------------------------------------------|
|---------------------------------------------------|
|---------------------------------------------------|
Suggest correction
Give kudos to tab author, rate the tab!
1 2 3 4 5
comments
print report bad tab
guest
You may want to rate the tab now too:
select rating
Please do not post tabs as comments. Select "correction" instead!