Oops, an error
Loading. Please wait.

Im From The Country Tab

6,983 views 12 this week
no commentswrite comment
1 2 3 4 5
please rate
add to favorites
launch autoscroll
font size
0
reset
how to read this tab
guitar tuner
Autoscroll
slow
fast
+/-
esc
set tempo
stop
Help us to improve Ultimate-Guitar.com Take our survey!
×
Difficulty
intermediate
I'm From The Country - Tracy Byrd
Intro

E||----------------------------|-------------------------------|-------|
B||--3----3----3-----0---------|-------------------------------|-------|
G||-----------------------2----|-------------------------------|-------|
D||----------------------------|-------------------------------|-------|
A||----------------------------|------------------2b----2b-----|--0----|
E||----------------------------|--0----3-----4-----------------|-------|

Chorus

|----------------------------|-----------------------------||
|----------------------------|-----------------------------||
|*---------------------------|----------------------------*||
|*---------------------------|----------------------------*||
|----------------------------|--2b--2----0-----------------||
|---0--------0----3-----4----|-----------------3b----0-----||

   **Just move the above riff down 1 string...
----------------------------|-----------------------------||
----------------------------|-----------------------------||
*---------------------------|----------------------------*||
*---------------------------|--2b---2----0---------------*||
---0--------0----3-----4----|------------------3b----0----||
----------------------------|-----------------------------||


Tablature Legend
----------------
h - hammer on
p - pull off
b - bend
br - bendRelease

This is my first tab and I no next to nothing about music theory so hope this gives some 
if its not 100%
Suggest correction
Give kudos to tab author, rate the tab!
1 2 3 4 5
comments
print report bad tab
guest
You may want to rate the tab now too:
select rating
Wanna post a correction for this tab? Suggest correction