Oops, an error
Loading. Please wait.

Im From The Country Tab

version 1
version 1

Solo

13 views 1 this week
1 commentread comment
1 2 3 4 5
2 more votes to show rating
add to favorites
launch autoscroll
font size
0
reset
how to read this tab
guitar tuner
Autoscroll
slow
fast
+/-
esc
set tempo
stop
Help us to improve Ultimate-Guitar.com Take our survey!
×
Author
This is the solo for this song I added a correct intro below too.

[Intro]
                                 D
e|---------------------------------------------------------------------------|
B|-3-3-3---0-----------------------------------------------------------------|
G|------------2----------2---------------------------------------------------|
D|--------------0--2--4----4--0----------------------------------------------|
A|---------------------------------------------------------------------------|
E|---------------------------------------------------------------------------|


{solo}
  D
e|---------------------------------------------------------------------------|
B|---------------------------------------------------------------------------|
G|---------2-5-4-2------------2-5-4-2----------------------------------------|
D|-0-0--4----------4----0-0-4------------------------------------------------|
A|---------------------------------------------------------------------------|
E|---------------------------------------------------------------------------|


  G                        D
e|---------------------------------------------------------------------------|
B|--------2--6--5--2---------------------------------------------------------|
G|------4-------------4------------2-5-4-2-----------------------------------|
D|-5-5---------------------0-0--4--------------------------------------------|
A|---------------------------------------------------------------------------|
E|---------------------------------------------------------------------------|


  A                             D
e|---------------------------------------------------------------------------|
B|--------5-----------5---------3-3-3---0------------------------------------|
G|----------6-----------6------------------2--------2------------------------|
D|-7-9-7------7--7-7------7-------------------0-2-4---4-0--------------------|
A|---------------------------------------------------------------------------|
E|---------------------------------------------------------------------------|
Suggest correction
Give kudos to tab author, rate the tab!
1 2 3 4 5
comments
print report bad tab
1 comment total.
0 reply
robremlap 10 Nov 02, 2016 09:21 PM

Just listened to the song and this is very close. thanks

guest
You may want to rate the tab now too:
select rating
Wanna post a correction for this tab? Suggest correction