Oops, an error
Loading. Please wait.

Give Me One Reason Bass

version 1
version 1

Whole song

Interactive

30,200 views 48 this week
no commentswrite comment
1 2 3 4 5
x 15
add to favorites
launch autoscroll
font size
0
reset
guitar tuner
×
Best way to learn
"Give Me One Reason"
Autoscroll
slow
fast
+/-
esc
set tempo
stop
G|----------------------------------------------------------|
D|----------------------------------------------------------|
A|----------0--2--4----------------------0--2--2---0--2--4--|
E|-0--2--2------------0--2--2---0--2--2---------------------|

G|----------------------------------------------------------|
D|----------------------------------------------------------|
A|-------------------2--4--4---0--2--2----------------------|
E|-0--2--2---0--2--2---------------------0--2--2---0--2--2--|
Suggest correction
comments
print report bad tab
guest
You may want to rate the tab now too:
select rating
Wanna post a correction for this tab? Suggest correction