Oops, an error
Loading. Please wait.

Give Me One Reason Chords

version 3
version 3

Whole song

Interactive

Video

14,551 views 9 this week
1 commentread comment
1 2 3 4 5
x 3
add to favorites
launch autoscroll
font size
0
reset
transpose
0
reset
display chords
guitar tuner
×
Best way to learn
"Give Me One Reason"
Autoscroll
slow
fast
+/-
esc
set tempo
stop
Difficulty
intermediate
(This chord progression repeats for the entirety of the song.) 

[Chords]
F#
e|-2-------------|
B|-2---4---------|
G|-2---4---------|
D|-2-------------|
A|-2-------------|
E|-2-------------|

e|-4-------------|
B|-4-------------|
G|-4----6--------|
D|-4----6--------|
A|-4-------------|
E|-4-------------|

e|-2--------------|
B|-2----4---------|
G|-2----4---------|
D|-2----4---------|
A|-2--------------|
E|-2--------------|

[Verse]
F#                          B quick transition to C#
Give me one reason to stay here
                          F#
And I'll turn right back around.

[Chorus]
C#
Said I don't wanna leave you lonely, 
B                               F#
You've got to make me change my mind.
Suggest correction
Give kudos to tab author, rate the tab!
1 2 3 4 5
comments
print report bad tab
1 comment total.
0 reply
rezzzinator 10 Nov 07, 2016 03:17 PM

I'm glad to see someone actually used the correct chords, instead of using a capo and calling it an E... an F# is an F# weather or not you're using a capo. Personally I don't use a capo for this song. It is completely pointless..

guest
You may want to rate the tab now too:
select rating
Wanna post a correction for this tab? Suggest correction