Oops, an error
Loading. Please wait.

Give Me One Reason Tab

version 3
version 3

Whole song

Interactive

Video

85,048 views 213 this week
1 commentread comment
1 2 3 4 5
excellent!
x 11
add to favorites
launch autoscroll
font size
0
reset
how to read this tab
guitar tuner
Tab Pro tools
  • play this tab
  • loop segment
  • change instrument
  • show fretboard
  • metronome
Autoscroll
slow
fast
+/-
esc
set tempo
stop
Contributor
Difficulty
intermediate
Tracy Chapman
Give Me one Reason


Acoustic Intro
E------------------------------------------------------|
B------------2-----2-2-------4---6-6------2-----2-2----|
G------------3-----3-3-------4---6-6------3-----3-3----|
D------------4-----4-4-------4---6-6------4-----4-4----|
A-----------------------0-2----4-----------------------|
E--0-0-0-2-------2-------------------0-2-----2------0--|


E-----------------------------------------------------------------|
B-----2-----2-2--------4-----4--------4----6-6--------2-----2-----|
G-----3-----3-3--------4-----4--------4----6-6--------3-----3-----|
D-----4-----4-4--------4-----4--------4----6-6--------4-----4-----|
A----------------0--2-----2-----0--2-----4------------------------|
E--2-----2--------------------------------------0--2-----2-----0--|


E----------------------------------------------------------------------------|
B-----2-----2-2--------6--------4-----4-4--------2-----2-2--------2-----2-2--|
G-----3-----3-3--------6--------4-----4-4--------3-----3-3--------3-----3-3--|
D-----4-----4-4--------6--------4-----4-4--------4-----4-4--------4-----4-4--|
A----------------0--4-----0--2-----2-----------------------------------------|
E--2-----2---------------------------------0--2-----2-------0--2-----2-------|

F#				   B
Give me one reason to stay here
	C#		  F#
and i'll turn right back around
B
Give me one reason to stay here
	C#		  F#
and i'll turn right back around
	C#			     B#
Said i don't wanna leave you lonely
			     F#
you got to make me change my mind
F#			  B
Baby i've got your number
    C#				F#
oh, and i know that you've got mine

Guitar 2 (distortion)
-----------------------------|
-------7~~~-----10\\7~~~~~~--|
-6//8--------8---------------|
-----------------------------|
-----------------------------|
-----------------------------|

B
you know that i called you
C
I called too many times

-----------------------------|
--10b~~~~---9b--9--7/9\~~~~7-|
-----------------------------|
-----------------------------|
-----------------------------|
-----------------------------|

         C#
you can call me baby
	 B
you can call me anytime
	   F#
you go to call me

-----------------------------|
-/5~~~-----------------------|
--------4b2b-----------------|
--------------4~~~~----------|
-----------------------------|
-----------------------------|

F#				  B
Give me one reason to stay here
      C#		 F#
and i'll turn right back around

--7b---5b---------5b---------|
-----------7~~~~-------------|
-----------------------------|
-----------------------------|
-----------------------------|
-----------------------------|

B
Give me one reason to stay here
	C#
and i'll turn right back around

---------------------------------|
--10b-10b--7--7~~~~---7~~~~--9b--|
---------------------------------|
---------------------------------|
---------------------------------|
---------------------------------|

	C#				B
Said I don't want to leave you lonely
			      F#
you got to make me change my mind

-----------------------------|
-------7--9b--7~~~~----------|
---/9----------------9b\-----|
-----------------------------|
-----------------------------|
-----------------------------|

	F#			   B
I don't want no one to squeeze me
	C#		 F#
they might take away my life

-----------------------------|
-12b-------------------------|
-----(12)--10-12\10----------|
---------------------11~~~---|
-----------------------------|
-----------------------------|
	 B
I don't want no one to squeeze me
	C#		 F#
they might take away my life

-------------------------------|
-------------------------------|
--9/11\9---9---9/7--9\7--------|
-----------9---9/7--9\7--------|
-------------------------9~~~--|
-------------------------------|

	C#
I just want someone to hold me

---------------|
---------------|
---8\6~~~------|
---------------|
---------------|
---------------|

B					F#
    Oh, and rock me through the night

SOLO
E--------------------------------5b\---7b---7\5\---5b-7-7\5---------------|
B-----------------------5-7-7~~-----------------7------------7~~--7~~-5b\-|
G---(4)b--4\2b-------/6-----------------------------------------6---------|
D-4-------------4~~4------------------------------------------------------|
A-------------------------------------------------------------------------|
E-------------------------------------------------------------------------|
			      *hold bend
E----------------11--12~~--12------12--------------------------|
B----7~~----9b---12--14~~-----12b*-----(12)\10--12--(10)/12~~--|
G-/8-----8-----------------------------------------------------|
D--------------------------------------------------------------|
A--------------------------------------------------------------|
E--------------------------------------------------------------|

E--------------------------------------------------------|
B-10-12--12---12\10--12---10b----------\5----------------|
G------------------------------11----------6--4--2--4~~--|
D----------------------------------11--------------------|
A--------------------------------------------------------|
E--------------------------------------------------------|

	F#			  B
This youthful heart can love you
      C#			F#
yes, and give you what you need

---------------------------------|
----5--5~~--7--------------------|
-6-------------------------------|
---------------------------------|
---------------------------------|
---------------------------------|

	     B
I said this youthful heart can love you

--------|
--------|
-4/6\4--|
-4/6\4--|
-4/6\4--|
--------|

     C#			   F#
ho, and give you what you need

---------|
----7~~--|
---------|
-7-------|
---------|
---------|

	C#				C#7
But i'm to old to go chasin you around

----------|
----------|
--4\2-----|
--3\1-----|
--4\2-----|
----------|

B7				F#
    wastin' my precious energy

-----5b----------------5b--------|
--7------7\5--7~~~--7------------|
---------------------------------|
---------------------------------|
---------------------------------|
---------------------------------|

F#				B
Give me one reason to stay here

-----7--|
5/7~----|
--------|
--------|
--------|
--------|

     C#				F#
yes, now turn right back around

--9b--7b\5--7b\5-----7--5--------|
------------------7--------7~~~--|
---------------------------------|
---------------------------------|
---------------------------------|
---------------------------------|

B
Give me one reason to stay here

-----5--|
--5b----|
--------|
--------|
--------|
--------|

       C#		   F#
oh, i'll turn right back around

---------------------------------|
----------------14~~~~-----------|
--11~~-13--/15-------------------|
---------------------------------|
---------------------------------|
---------------------------------|

	C#			     B
Said i don't wanna leave you lonely
			     F#
you go to make me change my mind

--17--17------------------14----------16--14-------|
----------17-14-------14------16b\14--16--14-------|
-----------------16b--------------------------16~~-|
---------------------------------------------------|
---------------------------------------------------|
---------------------------------------------------|

F#
Baby just give me one reason

--11b----|
--12b----|
---------|
---------|
---------|
---------|

B	C#			F#
   oh, just give me one reason why

--7b\5--5/7b--5-----------|
-----------------7~~~-----|
--------------------------|
--------------------------|
--------------------------|
--------------------------|

B
Baby just give me one reason

-------14~~--|
-------------|
--15b--------|
-------------|
-------------|
-------------|

     C#			  F#
oh, give just one reason why i should stay


--11b-----------|
--12b--10-------|
----------11~~~-|
----------------|
----------------|
----------------|

C#
Said i told you that i loved you

guitar 2
---------------------|
------------7--------|
--8--9--10--8--------|
------------9--------|
---------------------|
---------------------|

guitar 1 plays during words
--------------------------|
-----6--------------------|
-----6--------------------|
-----6--------------------|
--4-----4--0---2----------|
--------------------------|

B
And there ain't no more to say

guitar 2
--7b--5--7-----------------------------------|
------------7-----/7~~~----------------------|
---------------6-----------------------------|
---------------------------------------------|
---------------------------------------------|
---------------------------------------------|

guitar 1
--------------------------|
--------------------------|
--------------------------|
--------------------------|
-----4--0--2--0-----------|
--2--------------2--0--2--|
comments
print report bad tab
1 comment total.
0 reply
DaveMN wrote on December 25 2008, 03:57 am

Nice tab, seems youve missed a few bits in the solo though

I want to post or [tab]
guest
You may want to rate the tab now too:
select rating
Please do not post tabs as comments. Select "correction" instead!