Oops, an error
Loading. Please wait.
We have Chord Pro version of Give Me One Reason.
It's the closest thing you can get to the original song and it has interactive parts. Check out the tab »
×
12,127 views 6 this week
1 commentread comment
1 2 3 4 5
2 more votes to show rating
add to favorites
×
Save as Personal and add changes to this tab that will be seen only by you. Learn more ›
×
You can save this tab as Personal to edit and correct it or add notes. All changes will be seen only by you. Learn more »
launch autoscroll
font size
0
reset
how to read this tab
guitar tuner
edit
Autoscroll
slow
fast
+/-
esc
set tempo
stop
Author
Difficulty
Artist: Tracy Chapman
Song: Give Me One Reason
Album: New Beginning

Intro:

eb----------------------------------------------------------|-|
Bb-----------------------5-----7----------------------------|-|
Gb---------4---4---------5-----7-7-------4--4-------4--4----|-|
Db---------5---5-5-------5-----7-7-------5--5-5-----5--5-5--|-|
Ab---------5---5-5---1-3-----5-----------5--5-5-----5--5-5--|-|
Eb-1-1-1-3---3-----------------------1-3---3----1-3---3-----|-|

eb----------------------------------------------------|-|
Bb-----5---5------5-----7-----------------------------|-|
Gb-----5---5-5----5-----7-7-------4---4-------4---4---|-|
Db-----5---5-5----5-----7-7-------5---5-5-----5---5-5-|-|
Ab-1-3---3-----1-3----5-----------5---5-5-----5---5-5-|-|
Eb----------------------------1-3---3-----1-3---3-----|-|

eb--------------------------------------------------|-|
Bb------7--7--------5---5---------------------------|-|
Gb------7--7-7------5---5-5-----4---4-------4---4---|-|
Db------7--7-7------5---5-5-----5---5-5-----5---5-5-|-|
Ab--3-5---5-----1-3---3---------5---5-5-----5---5-5-|-|
Eb--------------------------1-3---3-----1-3---3-----|-|

Chorus:

"Give me one reason to stay here and I'll turn right back around"
eb------------------------------------------------------|-|
Bb-------------------5-----7----------------------------|-|
Gb-----4---4---------5-----7-7-------4--4-------4--4----|-|
Db-----5---5-5-------5-----7-7-------5--5-5-----5--5-5--|-|
Ab-----5---5-5---1-3-----5-----------5--5-5-----5--5-5--|-|
Eb-1-3---3-----------------------1-3---3----1-3---3-----|-|

"Give me one reason to stay here and I'll turn right back around"
eb----------------------------------------------------|-|
Bb-----5---5------5-----7-----------------------------|-|
Gb-----5---5-5----5-----7-7-------4---4-------4---4---|-|
Db-----5---5-5----5-----7-7-------5---5-5-----5---5-5-|-|
Ab-1-3---3-----1-3----5-----------5---5-5-----5---5-5-|-|
Eb----------------------------1-3---3-----1-3---3-----|-|

"Said I don't wanna leave you lonely, you gotta make me change my mind"
eb--------------------------------------------------|-|
Bb------7--7--------5---5---------------------------|-|
Gb------7--7-7------5---5-5-----4---4-------4---4---|-|
Db------7--7-7------5---5-5-----5---5-5-----5---5-5-|-|
Ab--3-5---5-----1-3---3---------5---5-5-----5---5-5-|-|
Eb--------------------------1-3---3-----1-3---3-----|-|

Verse:
"Baby I got your number, and I know that you got mine."
eb------------------------------------------------------|-|
Bb-------------------5-----7----------------------------|-|
Gb-----4---4---------5-----7-7-------4--4-------4--4----|-|
Db-----5---5-5-------5-----7-7-------5--5-5-----5--5-5--|-|
Ab-----5---5-5---1-3-----5-----------5--5-5-----5--5-5--|-|
Eb-1-3---3-----------------------1-3---3----1-3---3-----|-|

"You know that I called you, oh I called too many times."
eb----------------------------------------------------|-|
Bb-----5---5------5-----7-----------------------------|-|
Gb-----5---5-5----5-----7-7-------4---4-------4---4---|-|
Db-----5---5-5----5-----7-7-------5---5-5-----5---5-5-|-|
Ab-1-3---3-----1-3----5-----------5---5-5-----5---5-5-|-|
Eb----------------------------1-3---3-----1-3---3-----|-|

"You can call me baby, you can call me anytime. You got to call me."
eb--------------------------------------------------|-|
Bb------7--7--------5---5---------------------------|-|
Gb------7--7-7------5---5-5-----4---4-------4---4---|-|
Db------7--7-7------5---5-5-----5---5-5-----5---5-5-|-|
Ab--3-5---5-----1-3---3---------5---5-5-----5---5-5-|-|
Eb--------------------------1-3---3-----1-3---3-----|-|

Chorus:

"Give me one reason to stay here and I'll turn right back around"
eb------------------------------------------------------|-|
Bb-------------------5-----7----------------------------|-|
Gb-----4---4---------5-----7-7-------4--4-------4--4----|-|
Db-----5---5-5-------5-----7-7-------5--5-5-----5--5-5--|-|
Ab-----5---5-5---1-3-----5-----------5--5-5-----5--5-5--|-|
Eb-1-3---3-----------------------1-3---3----1-3---3-----|-|

"Give me one reason to stay here and I'll turn right back around"
eb----------------------------------------------------|-|
Bb-----5---5------5-----7-----------------------------|-|
Gb-----5---5-5----5-----7-7-------4---4-------4---4---|-|
Db-----5---5-5----5-----7-7-------5---5-5-----5---5-5-|-|
Ab-1-3---3-----1-3----5-----------5---5-5-----5---5-5-|-|
Eb----------------------------1-3---3-----1-3---3-----|-|

"Said I don't wanna leave you lonely, you gotta make me change my mind"
eb--------------------------------------------------|-|
Bb------7--7--------5---5---------------------------|-|
Gb------7--7-7------5---5-5-----4---4-------4---4---|-|
Db------7--7-7------5---5-5-----5---5-5-----5---5-5-|-|
Ab--3-5---5-----1-3---3---------5---5-5-----5---5-5-|-|
Eb--------------------------1-3---3-----1-3---3-----|-|

Verse 2: 
"I don't want no one to squeeze me, they might take away my life."
"I don't want no one to squeeze me, they might take away my life."
"I just want someone to hold me, oh and rock me through the night."

Bridge:
eb----------------------------------------------------------|-|
Bb-----------------------5-----7----------------------------|-|
Gb---------4---4---------5-----7-7-------4--4-------4--4----|-|
Db---------5---5-5-------5-----7-7-------5--5-5-----5--5-5--|-|
Ab---------5---5-5---1-3-----5-----------5--5-5-----5--5-5--|-|
Eb-1-1-1-3---3-----------------------1-3---3----1-3---3-----|-|

eb----------------------------------------------------|-|
Bb-----5---5------5-----7-----------------------------|-|
Gb-----5---5-5----5-----7-7-------4---4-------4---4---|-|
Db-----5---5-5----5-----7-7-------5---5-5-----5---5-5-|-|
Ab-1-3---3-----1-3----5-----------5---5-5-----5---5-5-|-|
Eb----------------------------1-3---3-----1-3---3-----|-|

eb--------------------------------------------------|-|
Bb------7--7--------5---5---------------------------|-|
Gb------7--7-7------5---5-5-----4---4-------4---4---|-|
Db------7--7-7------5---5-5-----5---5-5-----5---5-5-|-|
Ab--3-5---5-----1-3---3---------5---5-5-----5---5-5-|-|
Eb--------------------------1-3---3-----1-3---3-----|-|

Verse 3:
"This youthful heart can love you, yes and give you what you need."
"I said this youthful heart can love you, yes and give you what you need."
"but I'm too old to go chasing you around, wasting my precious energy."

Chorus:

"Give me one reason to stay here and I'll turn right back around"
eb------------------------------------------------------|-|
Bb-------------------5-----7----------------------------|-|
Gb-----4---4---------5-----7-7-------4--4-------4--4----|-|
Db-----5---5-5-------5-----7-7-------5--5-5-----5--5-5--|-|
Ab-----5---5-5---1-3-----5-----------5--5-5-----5--5-5--|-|
Eb-1-3---3-----------------------1-3---3----1-3---3-----|-|

"Give me one reason to stay here and I'll turn right back around"
eb----------------------------------------------------|-|
Bb-----5---5------5-----7-----------------------------|-|
Gb-----5---5-5----5-----7-7-------4---4-------4---4---|-|
Db-----5---5-5----5-----7-7-------5---5-5-----5---5-5-|-|
Ab-1-3---3-----1-3----5-----------5---5-5-----5---5-5-|-|
Eb----------------------------1-3---3-----1-3---3-----|-|

"Said I don't wanna leave you lonely, you gotta make me change my mind"
eb--------------------------------------------------|-|
Bb------7--7--------5---5---------------------------|-|
Gb------7--7-7------5---5-5-----4---4-------4---4---|-|
Db------7--7-7------5---5-5-----5---5-5-----5---5-5-|-|
Ab--3-5---5-----1-3---3---------5---5-5-----5---5-5-|-|
Eb--------------------------1-3---3-----1-3---3-----|-|

Verse 4:
"Baby just give me one reason, give me just one reason why."
"Baby just give me one reason, give me just one reason why, I should stay here."
"Said I told you that I loved you, and there aint no more to say."



Outro:
Both guitars

eb--------------|-|
Bb--------------|-|
Gb--------------|-|
Db--------------|-|
Ab-5-3-1--------|-|
Eb-------3-1-3--|-|



























            
            
Suggest correction
Creating personal tab
Creating personal tab
You can edit any tab online and save it as your Personal.

You can edit, replace or remove any tab part or add personal notes – all changes will be seen only by you.

Personal tabs can be accessed anytime from any device, even offline.
Learn more »
Give kudos to tab author, rate the tab!
1 2 3 4 5
comments
print report bad tab
1 comment total.
0 reply
spinknz 10 Oct 14, 2007 10:20 PM

Nice tab. The tuning is unnecessary though, just play it in standard.

guest
You may want to rate the tab now too:
select rating
Wanna post a correction for this tab? Suggest correction