Oops, an error
Loading. Please wait.

Heavens Here On Earth chords

172 views 6 this week
no commentswrite comment
1 2 3 4 5
3 more votes to show rating
add to favorites
×
Save as Personal and add changes to this tab that will be seen only by you. Learn more ›
×
You can save this tab as Personal to edit and correct it or add notes. All changes will be seen only by you. Learn more »
launch autoscroll
font size
0
reset
transpose
0
reset
simplify chords
display chords
guitar tuner
edit
Autoscroll
slow
fast
+/-
esc
set tempo
stop
About this tab version
Tab for the intro and simplified chords for the rest of the song. Was this info helpful? Yes No
Strumming
There is no strumming pattern for this song yet. and get +5 IQ
Tracy Chapman - Heaven's Here On Earth

[Intro]

e|---0----------------------------|---0----------------------------|
B|-3----------------1-0---1-------|-3----------------1-0---1-------|
G|-2--------------------2---2-0---|-2--------------------2---2-0---|
D|-2------------------------------|-2------------------------------|
A|--------------------------------|--------------------------------|
E|--------------------------------|--------------------------------|

e|---0----------------------------|--------------------------------|
B|-3----------------1-0---1-------|-1-3------------3-1-0---0-------|
G|-2--------------------2---2-0---|-0--------------------2---2-0---|
D|-3------------------------------|-0------------------------------|
A|--------------------------------|-2------------------------------|
E|--------------------------------|--------------------------------|

e|---0----------------------------|---0----------------------------|
B|-3-----0--------------0-1---3---|-3--------------------0-1---3---|
G|-2-------2--------0-2-----------|-2-----2-2--------0-2-----------|
D|-2------------------------------|-2------------------------------|
A|--------------------------------|--------------------------------|
E|--------------------------------|--------------------------------|

e|-1-0----------------------0-1-0-|--------------------------------|
B|-3-----3-3------1-3---1-3-------|-1-3---1-0------3-1-0---0-------|
G|-2------------------------------|-0--------------------2---2-0---|
D|-2------------------------------|-0------------------------------|
A|--------------------------------|-2------------------------------|
E|--------------------------------|-3------------------------------|

[Verse 1]
        Am
You can look to the stars in search of the answer
Am
Look for God and life on distant planets
Fmaj7
Have your faith in the everafter
      G6               N.C.
While each of us holds inside the map to the labyrinth
G6  N.C.
    Heaven’s here on earth
Am   Am   Fmaj7   G6

[Verse 2]
Am
We are the spirit, the collective conscience
Am                                         Fmaj7
We create the pain and the suffering and the beauty in this world
G6  N.C.
    Heaven’s here on earth

[Chorus 1]
Am        Fmaj7                         G6
    In our faith in humankind, in our respect for what is earthly
        Fmaj7                  G6
In our unfaltering belief in peace and love and understanding
Am   Am   Fmaj7   G6

[Verse 3]
     Am
I’ve seen and met angels wearing the disguise
   Am
Of ordinary people leading ordinary lives
            Fmaj7
Filled with love, compassion, forgiveness and sacrifice
G6  N.C.
    Heaven’s in our hearts

[Chorus 1]
Am        Fmaj7                         G6
    In our faith in humankind, in our respect for what is earthly
        Fmaj7                  G6
In our unfaltering belief in peace and love and understanding
Am   Am   Fmaj7   G6

[Verse 4]
Am
Look around, believe in what you see
    Am
The kingdom is at hand, the promised land is at your feet
   Fmaj7
We can and will become what we aspire to be
G6  N.C.
    If heaven’s here on earth

[Chorus 2]
Am            Fmaj7                     G6
    If we have faith in humankind and respect for what is earthly
        Fmaj7                    G6       N.C.
And an unfaltering belief that truth is divinity...
N.C.
And heaven’s here on earth

[Instrumental]
Am   Am   Fmaj7   G6   Am   Am   Fmaj7   G6

[Verse 5]
Am                   Am
    I’ve seen spirits, I’ve met angels
Fmaj7                     G6
    I’ve touched creations beautiful and wondrous
Am                  Am
    I’ve been places where I question all I think I know
Fmaj7                              G6
    I believe, I believe, I believe this could be heaven
Am   Am   Fmaj7   G6

[Verse 6]
Am
We are born inside the gates
         Am
With the power to create life and to take it away
    Fmaj7
The world is our temple, the world is our church
G6  N.C.
    Heaven’s here on earth

[Chorus 3]
Am            Fmaj7                     G6
    If we have faith in humankind and respect for what is earthly
        Fmaj7                  G6               N.C.
And an unfaltering belief in peace and love and understanding
N.C.                              Asus2
This could be heaven here on earth

            
            
Suggest correction
Creating personal tab
Creating personal tab
You can edit any tab online and save it as your Personal.

You can edit, replace or remove any tab part or add personal notes – all changes will be seen only by you.

Personal tabs can be accessed anytime from any device, even offline.
Learn more »
Give kudos to tab author, rate the tab!
1 2 3 4 5
comments
print report bad tab
guest
You may want to rate the tab now too:
select rating
Wanna post a correction for this tab? Suggest correction