Oops, an error
Loading. Please wait.

Spring Chords

55 views 1 this week
4 commentsread comments
1 2 3 4 5
x 13
add to favorites
launch autoscroll
font size
0
reset
transpose
0
reset
display chords
guitar tuner
Autoscroll
slow
fast
+/-
esc
set tempo
stop
Help us to improve Ultimate-Guitar.com Take our survey!
×
Author
About this tab version
Explain why your version is different. Was this info helpful? Yes No
SONG:   SPRING
ARTIST: TRACY CHAPMAN
TAB BY: DON CZARSKI
EMAIL:  GUITARZAN7@HOTMAIL.COM


                          SPRING
                       TRACY CHAPMAN


INTRO:

   Cm                        Ab        Bb        Cm
E -3----3--6--3--------------4---------6---------3--------
B -4--6----------6--4---4----4---4-----6---6-----4--4--4--
G -5----------------------5--5---------7---------5----5---
D -5-------------------------6---------8---------5-------- 
A -3-------------------------6-----6---8-----8---3--------
E -3-------------------------4---------6---------3--------

   Cm                        Ab        Bb        Cm
E -3----3--6--3--------------4---------6---------3--------
B -4--6----------6--4---4----4---4-----6---6-----4--4--4--
G -5----------------------5--5---------7---------5----5---
D -5-------------------------6---------8---------5-------- 
A -3-------------------------6-----6---8-----8---3--------
E -3-------------------------4---------6---------3--------


VERSE:
  Cm
There's a cloud, there's a cloud
   Ab       Bb   Cm
A blue sky darkening

      Cm
That veils the light, of the sun
Ab       Bb       Cm
And foretells the rain

      Cm
But there's a bird, there are birds
     Ab       Bb Cm
And some are singing


CHORUS:
         Cm
To greet every new day that may come
 Ab       Bb        Cm
Like the first of spring


INSTRUMENTAL:
   Cm                        Ab        Bb        Cm
E -3----3--6--3--------------4---------6---------3--------
B -4--6----------6--4---4----4---4-----6---6-----4--4--4--
G -5----------------------5--5---------7---------5----5---
D -5-------------------------6---------8---------5-------- 
A -3-------------------------6-----6---8-----8---3--------
E -3-------------------------4---------6---------3--------

   Cm                        Ab        Bb        Cm
E -3----3--6--3--------------4---------6---------3--------
B -4--6----------6--4---4----4---4-----6---6-----4--4--4--
G -5----------------------5--5---------7---------5----5---
D -5-------------------------6---------8---------5-------- 
A -3-------------------------6-----6---8-----8---3--------
E -3-------------------------4---------6---------3--------


VERSE:
Cm
It is cold, it is cold
     Ab       Bb Cm
I've had the feeling

Cm
At the heart and in the core
     Ab      Bb    Cm
The roots of all things

      Cm
But there's a bud, there's a bulb
    Ab      Bb  Cm
It will be blooming


CHORUS:
         Cm
To greet every new day that may come
 Ab       Bb        Cm
Like the first of spring


BREAK:
   Cm                        
E ------3--6--3--------------
B -4--6----------6--4---4----
G ------------------------5--
D --------------------------- 
A ---------------------------
E ---------------------------

 Ab   Bb Cm
Sprin-in-ing

   Cm                        
E ------3--6--3--------------
B -4--6----------6--4---4----
G ------------------------5--
D --------------------------- 
A ---------------------------
E ---------------------------

 Ab   Bb Cm
Sprin-in-ing


VERSE:
Cm
It is late, it is late
   Ab       Bb Cm
As I watch waiting

Cm
It will go, come turn away
     Ab   Bb Cm
The cycle cycling

  Cm
There's a face with new eyes
   Ab  Bb Cm
A baby crying


CHORUS:
             Cm
Who'll greet every new day that may come
 Ab       Bb        Cm
Like the first of spring


OUTRO:
   Cm                        
E ------3--6--3--------------
B -4--6----------6--4---4----
G ------------------------5--
D --------------------------- 
A ---------------------------
E ---------------------------

 Ab       Bb        Cm
Like the first of spring


   Cm                        
E ------3--6--3--------------
B -4--6----------6--4---4----
G ------------------------5--
D --------------------------- 
A ---------------------------
E ---------------------------

 Ab       Bb        Cm
Like the first of spring

   Cm                        
E ------3--6--3--------------
B -4--6----------6--4---4----
G ------------------------5--
D --------------------------- 
A ---------------------------
E ---------------------------

 Ab       Bb        Cm
Like the first of spring
Suggest correction
comments
print report bad tab
4 comments total. Showing first comments.
+1 reply
MistyMorning 1,450 Nov 27, 2016 11:59 PM

Nice post.

+2 reply
DON CZARSKI [tm] 23,783 Nov 28, 2016 07:48 AM

MistyMorning ...
NO thanks for being the only one to rate this song with 4 stars while everyone else rated it 5 stars...
Especially from someone that only plays UB40 songs and doesn't even get 5 star ratings on them.
I never understand people like you and your rating of 4 stars. This is a chord tab which is what the
Person requested.

0 reply
Luaeria 425 Dec 01, 2016 07:45 PM

Plays beautifully, you're a gifted tablaturist, mate! Thanks for all of your help and presence on the site!

guest
You may want to rate the tab now too:
select rating
Wanna post a correction for this tab? Suggest correction