Oops, an error
Loading. Please wait.

On Top Of Old Smokey Tab

7,159 views 6 this week
1 commentread comment
1 2 3 4 5
worth learning
x 4
add to favorites
launch autoscroll
font size
0
reset
how to read this tab
guitar tuner
Autoscroll
slow
fast
+/-
esc
set tempo
stop
Help us to improve Ultimate-Guitar.com Take our survey!
×
Difficulty
novice
It's not really Irish, but it wouldn't let me put this up without putting an "artist" it 
so...

----------3-----------------------------------------------------------------|
--------2---2--2---0-2-0---------2-2------0---------------------------------|
--0-0-4----------4---------0-0-4-----2--4---4-2-0---------------------------|
----------------------------------------------------------------------------|
----------------------------------------------------------------------------|
----------------------------------------------------------------------------|
Suggest correction
What's this?
You can suggest a correction to this tab. Community and Mods will review your correction and vote to approve or reject it.
comments
print report bad tab
1 comment total.
0 reply
meeeems 13 wrote on June 26 2015, 09:52 am

----------2-----------------------------------------------------------------|
--------2---4--4---0-2-4-2-------2-2------0---------------------------------|
--0-0-4--------------------0-0-4-----2--4---4-2-0---------------------------|
----------------------------------------------------------------------------|
----------------------------------------------------------------------------|
----------------------------------------------------------------------------|

guest
You may want to rate the tab now too:
select rating
Please do not post tabs as comments. Select "correction" instead!