Oops, an error
Loading. Please wait.

Red Haired Boy Tab

7,574 views 21 this week
no commentswrite comment
1 2 3 4 5
accurate
x 5
add to favorites
launch autoscroll
font size
0
reset
how to read this tab
guitar tuner
Autoscroll
slow
fast
+/-
esc
set tempo
stop
Help us to improve Ultimate-Guitar.com Take our survey!
×
Author
Difficulty
novice
e-----------------0-------------------------------------------------------0-|
B-----------0-1-3---3-0-1--0-1-3--------1-0-------------------------0-1-3---|
G-----0-2-0-----------------------0--0-------2-0--------------0-2-0---------|
D-0-2--------------------------------------------3-3-----0-2----------------|
A---------------------------------------------------------------------------|
E---------------------------------------------------------------------------|

e--------------3--3-0-------------0-1-0---3-1-0-----------------------------|
B-3-0-1--0-1-3--------3-1-0-----3-------3-------3-1--1--0-1-3------1-0------|
G---------------------------0-0-------------------------------0-0------2-0--|
D---------------------------------------------------------------------------|
A---------------------------------------------------------------------------|
E---------------------------------------------------------------------------|

e------------------------0--------------3-3-0-------------------------------|
B------------------0-1-3---3-0-1--0-1-3-------3-1--0------------------------|
G------------0-2-0-----------------------------------0-0--------------------|
D-3-3----0-2----------------------------------------------------------------|
A---------------------------------------------------------------------------|
E---------------------------------------------------------------------------|
Suggest correction
comments
print report bad tab
guest
You may want to rate the tab now too:
select rating
Wanna post a correction for this tab? Suggest correction