Oops, an error
Loading. Please wait.

Dear Mr Fantasy tab

version 2
version 2

Whole song

Interactive

by Traffic
1,495 views 24 this week
3 commentsread comments
1 2 3 4 5
x 5
add to favorites
×
Save as Personal and add changes to this tab that will be seen only by you. Learn more ›
×
You can save this tab as Personal to edit and correct it or add notes. All changes will be seen only by you. Learn more »
launch autoscroll
font size
0
reset
how to read this tab
guitar tuner
edit
Autoscroll
slow
fast
+/-
esc
set tempo
stop
Author
Difficulty
DEAR MR. FANTASY

As recorded by Traffic
(From the 1967 Album MR. FANTASY)

Words and Music by James Capaldi, Chris Wood & Steve Winwood

Transcribed by Slowhand


Gtr I (E A D G B E) - 'Steve Winwood - Electric Guitar (clean)'
Gtr II (E A D G B E) - 'Steve Winwood - Overdriven Guitar'


 Intro
  Q=80
  N.C.       A
 4/4
  Gtr I (Clean El. Gtr.)
  W          E S S +S  S E S S S S S S S S
|----------|-----0-(0)---------0-----------|
|----------|-----------2---2h3---3p2-------|
|----------|-------------2-----------2---0-|
|----------|---2-----------------------2---|
|----------|-0-----------------------------|
|----------|-------------------------------|


  G                             D
  E S S S S E E S S +S  S S S   E S S +S  S S S S S S S +S  S S S
|-----3-----------3-(3)-----0-|-----2-(2)-------2h3-2--------------|
|-----------------------0-----|-----------3-----------3-(3)--------|
|---0---------------------0---|---2---------2---------------2---2--|
|-------0h2-0---0-------------|-0-------------0---------------0----|
|-----------------------------|------------------------------------|
|-3-----------3---------------|------------------------------------|


                                              1st Verse
  A                                            A
  E S S +S  S E S S S S +S      S S +S         S E. +E. T T S S E S S S S
|-------------------------------------------||--------------0-------------|
|-----2-(2)---2-----------------------------||---2--(2)-------2-----2h3-0-|
|---2---------------------------------------||------------------2---2-----|
|-2---------2-------------------------------||----------0h2---------------|
|-0-----------------0-3-(3)b3.5-0-3-(3)b3.5-||-0------------------0-------|
|---------------0-2-------------------------||----------------------------|


  G                                 D
  E S S S S E +S  S S S +S  S S S   E S S +S  S S S S S S S +S  S S S
|-----3---------------3-(3)-----0-|-----2-(2)-------2h3-2-------------|
|-----0-------------0-------0-----|-----------3-----------3-(3)-----3-|
|---0-------------0-----------0---|-2-2---------2---------------2-----|
|---0---0h2-0-(0)-----------------|-0-------------0---------------0---|
|-2-------------------------------|-----------------------------------|
|-3-------------------------------|-----------------------------------|


  A
  E S S +S  S S S S S S S +S      S S +S        Q.   S S S S S S S S S S
|-----0-(0)-----------------------------------|----------0-------0--------|
|-----------2---------------------------------|--------2---2-----3-2------|
|---2---------2-------------------------------|------2-------2-------2----|
|---------------2-----------------0-----------|----------------2----------|
|-0-------------------0-3-(3)b3.5-0-3-(3)b3.5-|-0--------------0-------0--|
|-----------------0-2-------------------------|---------------------------|


  G                          D
  Q  S S E E S S +S  S S S   E S S +S  S S S S S S S +S  S S S
|--------------3-(3)-------|-----2-(2)-------2h3-2-------------|
|------------0-------0---0-|-----------3-----3-----3-(3)-----3-|
|----------------------0---|---2---------2---------------2-----|
|----0h2-0-----------------|-0-------------0---------------0---|
|-2------------------------|-----------------------------------|
|-3--------3---------------|-----------------------------------|


  A
  E E +E. S S S S S +Q     E S S +S  S S S S E S S E S
|---------------0--------|-----0-(0)-------------0-----|
|-----------2h3---3-(3)--|---2-------2-----2h3-3p2-----|
|---2-(2)----------------|-------------2---2-------2---|
|------------------------|-2-------------2-----------2-|
|-0-------0--------------|-0---------------------------|
|------------------------|-----------------------------|


  G                               D
                                                         ~~~~~~~
  E S S S S E +S  S S S +S  S E   E S S +S  S E S  S  S  S  +S   S  E
|-----3---------------3-(3)-----|-----2-(2)----------10---------10-----|
|-------------------0-------0---|---3-------3--------------------------|
|---0-------------------------0-|-2-2-----------4s11----11-(11)----11\-|
|-------0h2-0-(0)---------------|-0-----------0------------------------|
|-2-----------------------------|--------------------------------------|
|-3---------------3-------------|--------------------------------------|


  A
  E S S +Q   S S S S +S      S S +S
|-----0-(0)------------------------------|
|----------------------------------------|
|---2------------------------------------|
|----------------------------------------|
|-0--------------0-3-(3)b3.5-0-3-(3)b3.5-|
|------------0-2-------------------------|


                                G
  E S S +S  S E S S S S S S E   E S S S S E +S  S S S +S  S E
|-----0-(0)-----------0-------|-----3---------------3-(3)-3-3-|
|-----------2-----2h3---3p2---|---0---------------0-0-(0)-0-0-|
|---2---------2-------------2-|---0-------------------------0-|
|-------------2-2-------------|-------0h2-0-(0)---------------|
|-0-----------0-0-------------|-2-----------------------------|
|-----------------------------|-3---------------3-------------|


  D
  E S S +S  S S S S S S S S S e
|-----2-(2)-------2h3-2---------|
|-----------3-----------3-----3-|
|-2-2---------2-----------2-2---|
|-0-------------0---------0-0---|
|-------------------------------|
|-------------------------------|


                             Bridge
  A                           F#m
  E S S +S  S S S Q  +E. S    E. S E. S E S S +S  S S S
|-----0-(0)----------------||---------------------------|
|-----------2--------------||---------------------------|
|---2---------2------------||----2------2---2-(2)-------|
|---------------2----------||----4------4---4-(4)-------|
|-0---------------0--(0)---||---------------------------|
|--------------------------||-2----2--2---2-------2-2s5-|


  A                                   F#m
  E S S E E   S S S S     S S +S  S   S E S S S S S S E S +S  S S S
|---5-------------------------------|-------------------------------|
|---5---7---------------------------|-------------------------------|
|---------5b6-----5-5b5.5---7-(7)-5-|---2---4---2-2-2-2-4-(4)-2-----|
|-------------7-7-----------7-(7)-5-|---4---4-----4-----------------|
|-------------0-0-------------------|-------------------------------|
|-5---5-------------------5---------|-2---2---2-----------------2s5-|


  A                                     F#m
  E S S S S     S S S S S S +S  S S S   E S S S S S S S E S +S  S  S S
|---5---------------------------------|--------------------------------|
|---5---7-5b5.5-----------------------|--------------------------------|
|-------7-5b5.5-----5-5---5-(5)-------|---2---4-2-----2-2-4-(4)-2------|
|-------------------5-5---5-(5)-------|-------------------4-(4)-4------|
|---------------0-0-----7-------0-----|--------------------------------|
|-5---5-----------5---------------0-0-|-2---2-----2-2-------------/5-5-|


  A                                         F#m
  E S S S S     S S S     E     S +S  S E   E S S S S S S S E S  Q
|---5-------------------------------------|---------------------^2--|
|---5---7---------------------------------|---------------2-2---^2--|
|---------5b5.5-----5b5.5-5b5.5-----------|---2---4-2-----2-2-2-----|
|---------------7---------------7-(7)-5---|-------4-4---------4-----|
|---------------------------------------7-|-------------------------|
|-5---5-----------5---------------------0-|-2---2-----2-2-----------|


  G                      E
  Q  E E S S E S S S S   E E E E S S S S +S      S S +S
|------3---------3-3---|-----0-------------------------------||
|------0-0---0---0-0-0-|-----0-3-----------------------------||
|------0-0-0-0---0-0-0-|---1-1-1-----------------------------||
|----0-----0-----------|---2---------------------------------||
|-2--2-----------------|---2---------0-3-(3)b3.5-0-3-(3)b3.5-||
|-3------------3-------|-0-------0-2-------------------------||


 2nd Verse
  A
  E S S S S E S S S S S E.
|-------0---------0---------|
|---2h3---2---2h3---3p2-----|
|-----------2-----------2---|
|---------------------------|
|-0-------------------------|
|---------------------------|


  G                        D
  E S S S S E E S S +Q     E S S +S  S S S S S S S E E
|-----3-----------3-(3)--|-----2-(2)-------2h3-2-------|
|---------------0--------|-----------3-----------3---3-|
|---0--------------------|---2---------2-----------2-2-|
|-------0h2-0------------|-0-------------0---------0-0-|
|-------------2----------|---------------0-------------|
|-3-----------3----------|-----------------------------|


  Asus4                          A
  E S S S S S S S S S S +S  E.   E S S S S S S S S S S S S E
|-------0---0---0---0----------|-----0-----0-------0---------|
|-----3-------2-2h3---3-(3)-3--|---2-----2-----2h3---3p2-----|
|---2-----2-----------------2--|-------2-----2-----------2-2-|
|---------------------------2--|-------------2-----------2-2-|
|-0-------------------------0--|-0---------------------------|
|------------------------------|-----------------------------|


  G
  E S S S S E +S  S S S +S  S S S
|---------------------3-(3)-3---3-|
|-------------------0-0-(0)-0-0---|
|-----0-----------0-0-------------|
|---0---0h2-0-(0)-0---------------|
|-2-------------------------------|
|-3-------------------------------|


  D                                 A
                                               Gtr II (El. Gtr. w/ light dist.)
  S S S S +S  S S S S S S S E S S   H    +Q.   S S
|-------2-(2)-------2h4-2---------|-----------------||
|---3---------3-----3-----3-----3-|-----------------||
|-2---2---------2-----------2-2---|-2----(2)--------||
|-0---------------0-----------0---|-2----(2)--------||
|---------------------------------|-0----(0)-----0--||
|---------------------------------|------------3----||


 Guitar Solo
  N.C.
    ~~~~                     ~~~~~
             |----3-----|
    H.       Q     +S   S    S  E  S  +Q    +E   S  S  +S   S  E
|-------------------------|--------------------------------------|
|-----------15b17r(15)p13-|-------13-(13)--(13)-------------0----|
|-/14---------------------|-14-14---------------12s14-(14)-12s14-|
|-------------------------|--------------------------------------|
|--(0)--------------------|--------------------------------------|
|-------------------------|--------------------------------------|


          ~~~~
   S  S   Q.    E  E  S  E     +S
|-----------------------------------|
|--0--------------------------------|
|-12s14-(14)---12-------------------|
|-----------------14-12-10b11-(10)--|
|---------0-------------------------|
|-----------------------------------|


      ~~
                           |--3--|
   E  E  S  S  S  S  a  E  S  S  S  a  S  S  S  S
|-------------------------------------------------|
|-------------------------------------------------|
|-------------12----12h14-12----12----------------|
|-------12s14----14----------14----14s12p10-12-10-|
|-12-12-------------------------------------------|
|-------------------------------------------------|


                  |3-|                      |-3-|
   +S   +S        E  S  E E +E  S   S S S   S S S
|-------------------------------------5-----------|
|-----------------------------------5-5-----------|
|-------------------------------7b9-----7b8-7p5---|
|-(10)-(10)b10.5--------------------------------7-|
|----------------12-10h12-0-(0)-------------------|
|-------------------------------------------------|


                             ~~
  |3| |-3-| |-3-| |3| |-3-|    |3-| |3-|
  E S S S S S S S S E S S S  E S  E S  E
|-----------------------------------8-10-|
|---------------------8---8-10-8-10------|
|-7-5-------5---5-7s9---9----------------|
|-----7p5h7---7--------------------------|
|----------------------------------------|
|----------------------------------------|


  |-3-|            |-3-| |3|   |--3--| |----6----|
  S S S E S    +S  S S S S E   E     S S S S S S S
|-8s5s8s5------------------------------------------|
|---------8b10-(8)-8-5-8-5-------------------------|
|---------8b10-(8)---------7b8-5b5.5---7-5---5---5-|
|---------8--------------------------7-----7---7---|
|--------------------------------------------------|
|--------------------------------------------------|


                                ~
    |--3--| |-3--|  |3| |3| |3|   |-3-|
  E S   S S S   +E  E S E S E S E S s s    E     E Q  +E    E  E  E
|---------5-----------------------------|-------------------------------|
|-------5-5---------5---7---------------|---------------------13-15b17==|
|---7b8-----7b8-(7)-5---7-5---5---------|-----------------/14-----------|
|-7-------------------7-----7---7-5-----|----------7--(7)---------------|
|-----------------------------------7-5-|-\3b3.5-0----------------------|
|---------------------------------------|-------------------------------|


            |--3--|                  |-------6--------|
   +E    E  S  S  S  E      +E    e  S  +S   S  S  S  S
|-------15----------15b17==(15)r-15----------------------|
|-(15)r----15p13--------------------15-(15)p13-15p13-----|
|----------------14----------------------------------14--|
|--------------------------------------------------------|
|--------------------------------------------------------|
|--------------------------------------------------------|


   |3-|       |--3--|  |--3--|  |3-|  |--3--|
   S  E   Q   S  S  S  S  S  S  E  S  S  S  S  S  S
|---------------------------------------------------|
|-13------------------------------------------------|
|----14-/14--12----12-------------------------------|
|---------------14----14s12p10-12-10----------10----|
|------------------------------------12p10h12----12-|
|---------------------------------------------------|


   |-3-|        |3-|
   E  +S        E  S  E  S  +S       Q.   E
|--------------------------------------------|
|--------------------------------------------|
|--------------------------------------------|
|-10-(10)b10.5----------10-(10)b10.5---------|
|--------------12p10-12--------------0-------|
|------------------------------------0-------|


                               |3-| |3| |-3-|
  S   S S S   S S S   S S S   +E  S E S S S S
|-------5-------5-------5---------------------|
|-------5-----5-5-----5-----------------------|
|-7b9-5---7b9-----7b9-----7b9r(7)p5-7-5-------|
|---------------------------------------7p6h7-|
|---------------------------------------------|
|---------------------------------------------|


  |----3----|
  S +S      S S S S S S S S S S +S      E E
|-------------------------------------------|
|-------------------------------------------|
|-5-(5)b5.5---------------------------------|
|-------------7---5h7p5---------------------|
|-----------0---0-------7-6-5---------------|
|-----------------------------8-(8)b8.5-5---|


                      |3-|        |3-|   |3-|
  E  S  S  +E   S  S  S  E  S  S  E  S   E  S
|---------------------0-----------------------|
|----0---------13----13h15-13----13-----------|
|---12s14-(14)----14----------14--------------|
|-----------------------------------14-\12-10-|
|---------------------------------------------|
|---------------------------------------------|


    |---3---|
   +E      +S    E  +E    S  S  S     +E.  S  S     S  S
|------------------------------15b17-(15)-15-------------|
|-----------------------/13------------------15b17-15-13-|
|--------------/14-(14)-----14---------------------------|
|-(10)b11-(10)-------------------------------------------|
|--------------------------------------------------------|
|--------------------------------------------------------|


                                      |3-|  |3-|  |3-|
   S  S  S  S   S  +S        S  S  E  E  S  S  E  E  S
|------------------------------------------------------|
|------------------------------------------------------|
|-14-12------------------------------------------12----|
|-------14-11\-10-(10)b10.5----------10----12s14----14-|
|---------------------------12p10-12----12-------------|
|------------------------------------------------------|


   S  S  S  S  S  S  S  S  E  S  S S S S S
|----------------------------------0---5---|
|------------------------------------0-----|
|-12-14p12---------------------------------|
|----------14-12S10----------10------------|
|-------------------12p10-12----12---------|
|------------------------------------------|


  S S     S S S     S S S S S S     S a  E a  E
|-----------------------------------------------|
|-7-------------------------8-8b8.5---8h10-8h10-|
|-7-5b5.5-----5b5.5---5-7s9---------9-----------|
|---------7-7-------7---------------------------|
|-----------------------------------------------|
|-----------------------------------------------|


           |-3--|
   +E   Q  S  S S a  E a  E a  E a  E
|-------8--8---------8----8----8----8-|
|-(10)-10----10p8-8h10-8h10-8h10-8h10-|
|-------------------------------------|
|-------------------------------------|
|-------------------------------------|
|-------------------------------------|


  a  E a  E  +S  a  E. a  E. a  S  +E  a  E
|----8----8--(8)----8-----8-----8--(8)----8-|
|-8h10-8h10-(10)-8h10--8h10--8h10-(10)-8h10-|
|-------------------------------------------|
|-------------------------------------------|
|-------------------------------------------|
|-------------------------------------------|


   +S  a  E. a  E. a  S  +E  a  E  +S  a  E.
|--(8)----8-----8-----8--(8)----8--(8)----8--|
|-(10)-8h10--8h10--8h10-(10)-8h10-(10)-8h10--|
|--------------------------------------------|
|--------------------------------------------|
|--------------------------------------------|
|--------------------------------------------|


  a  E. a  S  +E  a  E  +S  a  E. S S  E
|----8-----8--(8)----8--(8)----8---------|
|-8h10--8h10-(10)-8h10-(10)-8h10--8------|
|-----------------------------------9-\7-|
|----------------------------------------|
|----------------------------------------|
|----------------------------------------|


  S   +S  S S S S S S +S      S S S S S S S
|-------------------------------------------|
|-----------0-------------------------------|
|-5b6-(5)-2-0-------------------------0-0---|
|-------------2-------------------2-2-----2-|
|---------------3-3-3-(3)b3.5-0-3-----------|
|-------------------------------------------|


  S S S S E S S S S S S E E
|---------------------3-3---|
|-----------1---1-3s5---5---|
|-0-2-2p0-2---2-------------|
|---------------------------|
|---------------------------|
|---------------------------|


    ~~~
                               |--3--|
    Q   S  S  S  S     +S   S  S  S  S  S  S  S  S
|--------------------------15-------------------15b17--|
|------13----13-15b17-(15)----15p13----15-13-----------|
|-/14-----14------------------------14-------14--------|
|------------------------------------------------------|
|------------------------------------------------------|
|------------------------------------------------------|


                                |3-|  |3-|         |-3-|
   +Q    T  T  T     +T   S  S  E  S  E  S  S  S   E  +S
|-(15)--15p13--------------------------------------------------|
|--------0----15b17-(15)-15-13-15------------------------------|
|--------0------------------------14-14-12---------------------|
|------------------------------------------14-12-\10-(10)b10.5-|
|--------------------------------------------------------------|
|--------------------------------------------------------------|


   ~~
                        |3-|  |3-|
   E  S  S  S  S  S  S  E  S  E  S  S  S  S   S
|------------------------------------------------|
|------------------------------------------------|
|-------------------12-12----14-14-12------------|
|----10----10-12s14-------14----------14-12-\10--|
|-12----12---------------------------------------|
|------------------------------------------------|


   +S      +S   S  S  E  S  S  S  S  S  S  S  S  S  S
|-----------------------------------------------------|
|-----------------------------------------------------|
|--------------------------------------12-12----12-14-|
|-(10)b11-(10)----------10----10-12s14-------14-------|
|--------------12p10-12----12-------------------------|
|-----------------------------------------------------|


                            |--3--|
   +E   S  S  S     +S   E  S  S  S  S  S  E  E
|-----------------------15-------------------15b17===|
|------13----15b17-(15)----15p13----15-13------------|
|-(14)----14---------------------14-------14---------|
|----------------------------------------------------|
|----------------------------------------------------|
|----------------------------------------------------|


                     |--3--|
   +Q     S S  E     S  S  S  S  S  S  S  S  S
|-(15)r--15-0----------------------------------|
|-------------15b17-15p13----15-13-------------|
|-------------------------14-------14-12-------|
|----------------------------------------14-12-|
|----------------------------------------------|
|----------------------------------------------|


                      ~~              ~~~
   S  +S        S  S  E  S  +S        Q.   E
|--------------------------------------------||
|--------------------------------------------||
|--------------------------------------------||
|-10-(10)b10.5----------10-(10)b10.5---------||
|--------------12-10-12--------------12------||
|--------------------------------------------||


 3rd Verse
  A
  Gtr I
  E S S S S E S S S S S S S S
|---0-0-------------0---------|
|---------2-----2h3---3p2-----|
|-----------2-------------2p0-|
|-------------2---------------|
|-0-----0---------------------|
|-----------------------------|


  G                       D
  E S S a E a E +Q.   E   E S S +S  S E a E E S S E
|-----3-----------------|-----2-(2)-----2h3-3-2-------|
|-----------------------|-----------3-----------3-----|
|---0-------------------|---2---------2-----------2---|
|-------0h2-0h2-(2)-----|-0---------------------------|
|-----------------------|-----------------------------|
|-3-------------------3-|-----------------------------|


  A
  E S S +S  S E S S S S +S      S S +S        E S S S S S S S S S S S S E
|-------------------------------------------|-------0-----------0----------|
|-----2-(2)---------------------------------|-----2---2-----2h3---3p2------|
|---2-------2-------------------------------|---2-------2-------------2----|
|-2-----------------------------------------|---------------------------2--|
|-0-----------0-----0-3-(3)b3.5-0-3-(3)b3.5-|-0-----------0----------------|
|---------------0-2-------------------------|------------------------------|


  G                              D
  E S S a E E +S  S S S +S  E.   E S S S S E S S S S S S E
|-----3---------------3-(3)----|-------2-----2h3-2---2-----|
|---------------------------0--|-3---3---3---------3---3---|
|---0--------------------------|---2-------2-------------2-|
|-------0h2-0-(0)---0----------|---------------------------|
|------------------------------|---------------------------|
|-3---------------3------------|---------------------------|


  A
  E S S S S E S S S S +S      S S +S        E Q  E +H
|-----------------------------------------|---------------|
|-------3p2-------------------------------|------2-(2)----|
|-----2-----2-----------------------------|---2-----------|
|---2-------------------------0-----------|---------------|
|-0---------------0-3-(3)b3.5---3-(3)b3.5-|-0-------------|
|-------------0-2-------------------------|---------------|


  G                                 D
  E E a E E  S S +S      S +E. S    E S S +S  S E S S S S S S S S
|---3-----------------------------|-----2-(2)-----2h3-2-----------|
|---------------------------------|-----------3---------3-----3---|
|--------------8-(8)b8.5-9-(9)-9\-|---2---------2---------2-----2-|
|-----0h2-0-/9--------------------|-0-----------------------0-----|
|---------------------------------|-------------------------------|
|-3-------------------------------|-------------------------------|


  A
                                Gtr II
  E S S S S S S S S S S S S E   E S S +S  S S S S S S S S S E
|-------0---------0-----------|-----0-(0)-----------0----------|
|-----2---2---2h3---3-2-2-2-2-|-----------2-----2h3---3p2------|
|---2-------2-2---------2-2-2-|---2---------2-------------2----|
|-0-----------2---------2-2-2-|-2-------------2-------------2--|
|-----------------------------|-0------------------------------|
|-----------------------------|--------------------------------|


  G                             D
        |3|
  E S S S E E S S S S +S  S E   E S S +S  S E S E S S S S S
|-------------------3-(3)-----|-----2-(2)-------2---2-2-2-2-|
|-----------0-----0-------0---|---3-------3-----3---3-3-3-3-|
|---0-------0-----0---------0-|-2-2---------2---2-3-2-2-2-2-|
|-----0-0h2-0---0-------------|-0-------------0---0-0-0-0-0-|
|-2---------------------------|-----------------------------|
|-3-----------3---------------|-----------------------------|


                                 Outro
  A                               A                    G
  S E S +S  S S S +S  S S S Q     Q  E S S E E S S E   E E a E E +Q.   S S
|-----0-(0)-------------0-0----||------0-------------|----------------------|
|-2-3-2-(2)-2-----------2-2-2--||----2---2-----2-2---|-0-0---0-0-(0)--------|
|-2-2-2-(2)---2-------2-2-2-2--||-2--2-----2---2-2-2-|-0-0---0-0-(0)--------|
|-2-----------2-2-(2)-2-2-2-2--||-2--2-----2-2-2-2-2-|-0-0-0h2-0-(0)--------|
|-0-----------0-------0-0-0-0--||-0--0-----0-0-0---0-|-2-2------------------|
|------------------------------||-0------------------|-3-3-------------3p2--|


  D/F#                          A                N.C.
                                                   ~~~    ~~~~~~~
  E E E S S +E  S S S E   +S    E Q.   +Q.   E     Q   E  E  +S   S E  S  S E
|-2-----2---------------------|----------------|------------------------------|
|-3-3-----3-(3)---------------|---2----(2)-----|------------------------------|
|-2-2-2---------2---5-5b6-(5)-|---2----(2)-----|-/14--14-14-(14)-14---14-14---|
|-0---0-----------------------|-2-2----(2)-----|------------------------------|
|-----------------------------|-0------------0-|--------------------0-------0-|
|-2---------------------------|----------------|------------------------------|


   ~~      ~~           ~~       ~~~~~~~~
   E E  S  E S E  E  a  Q     S  E.  +Q   E E E  a  E
|--------------------------|--------------------------|
|--------------0-----------|--------------------------|
|-14---14s16---0-14-14s16--|-16-14--(14)--------14s16-|
|--------------------------|--------------------------|
|----0-------0-------------|--------------0-0-0-------|
|--------------------------|--------------------------|


   ~~                      ~~
   E S S S S E E S S E  S  S
|----------------------------|
|----------------------------|
|-14-------------------14s16-|
|----------------------------|
|----0-0-0-0-0-0-0-0-0-------|
|----------------------------|


                     |--3--|       |-3-|
   E E E  a  E  +E   S  S  S  S S  S S S
|----------------------------------------|
|----------------------------------------|
|-14-----12h14-(14)-12p11h12p11s9-11p9s7-|
|----------------------------------------|
|----0-0---------------------------------|
|----------------------------------------|


                                                           |3-|
  S S E E a E a  E  a  E  a  E  E    a  E  E E E +E  a  E  E  Q
|---------------------------------|------------------8h10--8------|
|---------------------------------|--------------------10-10-10---|
|-9p7s6-7-7s9-9s11-11s12-12s14-14-|-14s16-14----------------------|
|---------------------------------|----------0--------------------|
|---------------------------------|----------0-0-(0)--------------|
|---------------------------------|-------------------------------|


                                              |--3--|  |3-|
   E     S  S      +S    S  E     S  E     S  S  S  S  E  S
|-------15-15-----(15)--15-15----15-15----15----------------|
|-15b17----15b17==(15)r----15b17----15b17----15p13----15-13-|
|--------------------------------------------------14-------|
|-----------------------------------------------------------|
|-----------------------------------------------------------|
|-----------------------------------------------------------|


      ~~
   |3-|  |--------6--------|  |3-|  |--3--|  |--3--|  |3-|
   E  Q  S  S  S  a  S  S  S  E  S  S  S  S  S  S  S  S  E
|----------------------------------------------------------|
|----------------------------------------------------------|
|-14-14-12----12----------------------------------------12-|
|----------14----14s12p10----12-10----------10----10-14----|
|-------------------------12-------12p10h12----12----------|
|----------------------------------------------------------|


        |3-|     |3-|  |3-|      |-3-|  |--3--|  |3-|
   +E   S  E  E  E  S  E  S     +E   S  S  S  S  E  S
|-----------------------------------16-----0----------|
|---------------13----13-15b17-(15)----15p13----15-13-|
|-(12)-14-12-14----14------------------------14-14----|
|-----------------------------------------------------|
|-----------------------------------------------------|
|-----------------------------------------------------|


                  |----3-----|  |3-|   |---3---|   |--3--|
   E     +Q    e  S     +S   S  E  S  +E      +S   S  S  S
|-15b17-(15)--15-------------------------------------------|
|----------------15b17r(15)-13-15-13-(13)b14-(13)----------|
|----------------------------0--------------------14-12----|
|-------------------------------------------------------14-|
|----------------------------------------------------------|
|----------------------------------------------------------|


    |3-|  |3-|
    E  S  E  S  E  S  S  S  a  E  S  S       S  S  S
|----------------------------------------------------|
|----------------------------------------------------|
|--------------------------------12-12b12.5----12-14-|
|-\12-10----------10----10-12s14------------14-------|
|--------12-10-12----12------------------------------|
|----------------------------------------------------|


         ~~
   |3-|     |3-|         |-3-|  |--3--|  |3-|
   E  S  E  E  S  E     +E   S  S  S  S  E  S  S  a  S
|---------------------------15--------------------------|
|----------13----15b17-(15)----15p13----15-13-----------|
|-14-12-14----14---------------------14-------14-12h14--|
|-------------------------------------------------------|
|-------------------------------------------------------|
|-------------------------------------------------------|


        |--3--|     |--3--|  |3-|  |3-|
   +E   S  S  S  a  S  S  S  E  S  E  S  E  Q
|----------------------------------------------------|
|----------------------------------------------------|
|-(14)-12----12--------------------------------------|
|---------14----14s13p10----12-10----------10b10.5===|
|------------------------12-------12-10-12-----------|
|----------------------------------------------------|


         |3-|  |3-|
   +E    E  S  E  S  S  S  S  S  S  S  a  E  S  S
|-------------------------------------------------|
|-------------------------------------------------|
|-------------------12-12-12-12-12-12-11s12-12-12-|
|-(10)r----10-12s14-14-14-14-14-14-14-13s14-14-14-|
|-------12----------------------------------------|
|-------------------------------------------------|


                                                  D
   S  S  a  E  S  S  S  S  a  E  S  S  S  S  S  S
|-------------------------------------------------|
|-------------------------------------------------|
|-12-12-11s12-12-12-12-12-11s12-12-12-12-12-12-12-|
|-14-14-13s14-14-14-14-14-13s14-14-14-14-14-14-14-|
|-------------------------------------------------|
|-------------------------------------------------|


 ouble time feel Q=158
  Q  E E E E E E   E E E E +E  E E E
|----------------|-------------------|
|----------------|-------------------|
|----------------|-------------------|
|----------------|-------------------|
|-0--0-0-0-----0-|-0-0-0-0-(0)-----0-|
|----------0-3---|-------------0-3---|


  E E E     E +E  E E E   E E E E E E E     E
|-----------------------|---------------------|
|-----------------------|---------------------|
|-----------------------|---------------------|
|-----------------------|---------------------|
|-0-0-3b3.5-0-(0)-----0-|-0---3-0-----------0-|
|-----------------0-3---|---0-3-----0-3b3.5---|


  E E S S E E E E E   E E a E E E E E     E
|-------------------|------------------------|
|-------------------|------------------------|
|-------------------|------------------------|
|-------------------|------------------------|
|-0-----3-0-------0-|-0---0h3-0-----------0--|
|---0-3-------0-3---|---0---------0-3b3.5----|


  A5
          |3|
  H.      Q E   H.      Q        H.      Q        H.      E   +E
|-------------|----------------|----------------|------------------|
|-------------|----------------|----------------|------------------|
|-------------|----------------|----------------|-2----------------|
|-2-----------|-2--------------|-2--------------|-2----------------|
|-0-----------|-0--------------|-0--------------|-0----------------|
|---------3-3-|---------3b3.5--|---------3b3.5--|---------3b4-(3)--|


  H.      E   +E    H.      Q
|-----------------|----------------|
|-----------------|----------------|
|-----------------|----------------|
|-2---------------|-2--------------|
|-0-------3b4-(3)-|-0--------------|
|-----------------|---------3b3.5--|


  N.C.
  E E E E +E  E E E   E E E E +E  E E     E
|-------------------|------------------------|
|-------------------|------------------------|
|-------------------|------------------------|
|-------------------|------------------------|
|-0-0-3-0-(0)-----0-|-0---3-0-(0)---------0--|
|-------------0-3---|---0---------0-3b3.5----|


  E E a E E E E E     E   E E E     E +E  E E     E
|-----------------------|---------------------------|
|-----------------------|---------------------------|
|-----------------------|---------------------------|
|-----------------------|---------------------------|
|-0---0h3-0-----------0-|-0---------0-(0)---------0-|
|---0---------0-3b3.5---|---0-3b3.5-------0-3b3.5---|


  E E E E E E E E   E E E E E E E E
|-----------------|-----------------|
|-----------------|-----------------|
|-----------------|-----------------|
|-----------------|-----------------|
|-0-0-3-0-------0-|-0---3-0-------0-|
|-----------0-3---|---0-------0-3---|


  Q  Q  E   Q  E     E E S   +S  E +E  E     E E
|------------------|-----------------------------|
|------------------|-----------------------------|
|------------------|-----------------------------|
|------------------|-------------2-(2)-----------|
|-0--0------0------|-----------------------------|
|-------3b4----3b4-|-0-0-3b4-(3)-------3b3.5-0-0-|


  E Q  E   E E E E      +E   Q    E   E     E E E
|---------------------|---------------------------*|
|---------------------|---------------------------*|
|---------------------|---------------------------*|
|---------------------|---------------------------*|
|---0------0----------|---------------------------*|
|-3----3b4---0-3-3b4==|=(3)r-3b4--3b4-3b3.5-0-x-3-*|


Duration Legend
---------------
W - whole; H - half; Q - quarter; E - 8th; S - 16th; T - 32nd; X - 64th; a - acciaccatura
+ - note tied to previous; . - note dotted; .. - note double dotted
Uncapitalized letters represent notes that are staccato (1/2 duration)
Irregular groupings are notated above the duration line
Duration letters will always appear directly above the note/fret number it represents the
duration for.  Duration letters with no fret number below them represent rests.  Multi-
bar rests are notated in the form Wxn, where n is the number of bars to rest for.  Low
melody durations appear below the staff

Tablature Legend
----------------
 h   - hammer-on
 p   - pull-off
 b   - bend
 pb  - pre-bend
 r   - bend release (if no number after the r, then release immediately)
 /\  - slide into or out of (from/to "nowhere")
 s   - legato slide
 S   - shift slide
  - natural harmonic
[n]  - artificial harmonic
n(n) - tapped harmonic
 ~   - vibrato
 tr  - trill
 T   - tap
 TP  - trem. picking
 PM  - palm muting
\n/  - tremolo bar dip; n = amount to dip
 \n  - tremolo bar down
 n/  - tremolo bar up
/n\  - tremolo bar inverted dip
 =   - hold bend; also acts as connecting device for hammers/pulls
 <>  - volume swell (louder/softer)
 x   - on rhythm slash represents muted slash
 o   - on rhythm slash represents single note slash

Misc Legend
-----------
 |  - bar
||  - double bar
||o - repeat start
o|| - repeat end
*|  - double bar (ending)
 :  - bar (freetime)
 $  - Segno
 &  - Coda
Tempo markers -  = BPM(8/16=s8/s16), where s8 = swing 8ths, s16 = swing 16ths



Dear Mister Fantasy play us a tune
Something to make us all happy
Do anything take us out of this gloom
Sing a song, play guitar, make it snappy
You are the one who can make us all laugh
But doing that you break out in tears
Please don't be sad if it was a straight mind you had
We wouldn't have known you all these years

Dear Mister Fantasy play us a tune
Something to make us all happy
Do anything take us out of this gloom
Sing a song, play guitar, make it snappy
You are the one who can make us all laugh
But doing that you break out in tears
Please don't be sad if it was a straight mind you had
We wouldn't have known you all these years

Dear Mister Fantasy play us a tune
Something to make us all happy
Do anything take us out of this gloom
Sing a song, play guitar, make it snappy
You are the one who can make us all laugh
But doing that you break out in tears
Please don't be sad if it was a straight mind you had
We wouldn't have known you all these years

            
            
Suggest correction
Creating personal tab
Creating personal tab
You can edit any tab online and save it as your Personal.

You can edit, replace or remove any tab part or add personal notes – all changes will be seen only by you.

Personal tabs can be accessed anytime from any device, even offline.
Learn more »
comments
print report bad tab
3 comments total.
0 reply
MatrixJ21 10 May 15, 2016 04:45 PM

This is an incredibly impressive and accurate tab. Thanks for this!

0 reply
epidoctor9 10 Feb 07, 2017 02:15 PM

Good job man. Wish I had your patience. 5 stars.

0 reply
robin_ward1 16 Jul 16, 2017 05:51 PM

Six stars from me!

guest
You may want to rate the tab now too:
select rating
Wanna post a correction for this tab? Suggest correction