Oops, an error
Loading. Please wait.

Borracho En El Bar Tab

39 views 1 this week
no commentswrite comment
1 2 3 4 5
3 more votes to show rating
add to favorites
×
Save as Personal and add changes to this tab that will be seen only by you. Learn more ›
×
You can save this tab as Personal to edit and correct it or add notes. All changes will be seen only by you. Learn more »
save as personal
new!
launch autoscroll
font size
0
reset
how to read this tab
guitar tuner
Autoscroll
slow
fast
+/-
esc
set tempo
stop
weno kreo ke la zake bien y zi no ezta bien
ezkriban uztedez pz.
pero yo se ke ezta bien. jjjj
kualkier koza ezkribanme

BORRACHO EN EL BAR

Intro:
       E5..........
       E5-C#5-A5-B5


VERSO1:(Pal mute)
E5                           C#5
Aun recuerdo y no puedo olvidar
                             A5
tus besos fríos tan cerca de mi
                          B5
me siento solo a reflexionar
                               E5
que un tonto fui no lo puedo negar


VERSO2:(pal mute)
E5                          C#5
y te marchaste muy lejos de mi
                            A5
sabiendo que solo iba a sufrir
                            B5
no te importo y me dejaste así
                          E5
seguro ya te olvidaste de mi


KORO1:(Rasgueo normal)
E5             C#5
y ahora lo se,
                   A5
nunca fue de verdad
            B5
ya comprendí
                           E5
tu amor por mi jamás fue real


VERSO3:(pal mute)
E5                           C#5
y ahora que paso los días sin ti
                              A5
sentado frente a las olas del mar
                                B5
es cuando la brisa me hace recordar
                              E5
mi rostro enojado de tanto llorar


KORO2:(Rasgueo normal)
                               C#5
Se me hace difícil poderte olvidar
A5                             B5              E5
es que te llevaste lo mejor de mi (lo mejor de mi)
                          C#5          A5
fui un tonto al dejarme robar (el corazón)
                             B5        E5
sabiendo que lo ibas a destrozaaa..ar

E5-C#5-A5-B5
E5-C#5-A5-B5

VERSO4:(pal mute)
E5                             C#5
Paso las noches borracho en el bar
                                  A5
ahogando el recuerdo es peor recordar
                                  B5
no tengo remedio y no se donde estas
                             E5
por vaso que tomo te veo llegar


repetir:(koro1-verso3-koro2)


E5-C#5-A5-B5
E5-C#5-A5-B5

solo:
E|---------------------------------|
B|---------------------------------|  (4V)
G|--9-9-9-9-9-9-9--9-8-9-11-9-8-9--|

E|--------------------------------------------------|
B|----------------------------------------10-9------|
G|--9-9-9-9-9-9-9--9-8-9-11-8-9-11-8-9-11------11-9-|-8-9-8--|

E|----------------------------|
B|-----------------10-9-------|          (3V)
G|--9-9-9-9-8-9-11-------11-9-|-8-9-8--|

E|-----------------------------------------11-11--|
B|------------------10-9----10-12-14-12-14--------|
G|--9-9-9-9-9-8-9-11-----11-----------------------|

E|--12-12-12-12-11-12-14-12-|-11-12-11--|
B|--------------------------|             (3V)
G|--------------------------|

E|--12-12-12-12-11-12-14-12-11--12--11--------------------------------------------|
B|--------------------------------------14--12--14--12--10--12--10-9--10-9--------|
G|-------------------------------------------------------------------------11--9--|

FIN...
====================================================================================

weno ezta kanzion es de ptm, kreo ke la zake bien
zolo kiero mandar zaludoz a una persona muy ezpecial para mi, para======cindy=======
y para zu amiga roxana.(para laz 'anarkiespina')jjj
y para la banda 'D.D.B' por ahora
para javier(punkra), pedro( ?? ), erik(punk chillon), y yo jesus(punkito. jejeje
y para toda la gente ke noz apoya:
Antonio(ali punk), Peke, Joncito, jhony(el papi)y su señora la vicki( victor)jajajajja
para Lolo(hugo), Omar(Tirito).
y para toda la komuna de ====TRAGOKORTO===

.................................................JESUS...PUNKITO...........

======================================================================================
Suggest correction
Give kudos to tab author, rate the tab!
1 2 3 4 5
comments
print report bad tab
guest
Wanna post a correction for this tab? Suggest correction