Oops, an error
Loading. Please wait.

Amistad Chords

5 views 1 this week
no commentswrite comment
1 2 3 4 5
3 more votes to show rating
add to favorites
launch autoscroll
font size
0
reset
transpose
0
reset
simplify chords
display chords
guitar tuner
×
Best way to learn
"Amistad"
Autoscroll
slow
fast
+/-
esc
set tempo
stop
 WUZUP MEN ¡¡BUENO GENTE ASTALKULO AKA LES MANDO UN TIPS DE ACORDES PARA LA MEJOR 
CANCIÓN DE TRAGOKORTO DEL DISKO ' YA NO QUEDA MAS '
 ES DE PUT@M@RE¡¡ DIFRUTENLA KANTANDOLA KON SUS AMIGOS..¡¡¡

INTRO:

            A5             C#           F#5                  D5             E5
e||----------------------------------------------------------------------------------|
b||----------------------------------------------------------------------------------|
g||-----------------------6------------------------------------7--------------9------|
D||------------7----------6---------------4--------------------7--------------9------|
A||------------7------4-------------------4-----------------5--------------7---------|
E||--------5---------------------------2---------------------------------------------|


      A5                   C#
aUn recuerdo akellos dias  que pasamos
        F#5                      D5     r5
compartiendo una amistad que nos unia...
       A5                  C#
han pasado muchos años desde entonces
        F#5                      D5     r5
pero nada ah borrado lo vivido...


      A5                   C#
 el tiempo se encargo de recordarnos
        F#5                      D5     r5
que habia llegado le momento de alejarnos...
      A5                   C#
y  asi fuimos todos parte de esta tristeza
  F#5                      D5     r5
 que mas da si sobrevivie una alegria...
    A5                   C#
que haber pasado instantes que el tiempo no borra
F#5                      D5     r5
no hay porque dejar que una lagrima corraaaaaa...


           A5             C#           F#5                  D5             E5
e||----------------------------------------------------------------------------------|
b||----------------------------------------------------------------------------------|
g||-----------------------6------------------------------------7--------------9------|
D||------------7----------6---------------4--------------------7--------------9------|
A||------------7-------4------------------4-----------------5--------------7---------|
E||--------5--------------------------2----------------------------------------------|


    CORO:
   ======            A5                   C#
              la amistad  un sentimiento que perdura
               F#5                      D5     r5
             que  pone a prueba la barrera mas intensa


           A5             C#                     F#5             D5                E5
e||--------------xxxxx-----------xxxxx-----------------xxxx-------------xxxx-----------------|
b||--------------xxxxx-----------xxxxx-----------------xxxx-------------xxxx-----------------|
g||--------------xxxxx--------6--xxxxx-----------------xxxx---------7---xxxx-----------9-----|
D||------------7-xxxxx--------6- xxxxx------------- 4--xxxx---------7---xxxx-----------9-----|
A||------------7-xxxxx------4----xxxxx--------------4--xxxx----5--------xxxx------7----------|
E||--------5-----xxxxx-----------xxxxx--------2--------xxxx-------------xxxx-----------------|


* despues de estos acordes sigue un punteo que es facil de improvisar sakalo pezzz¡¡¡¡


           A5             C#                     F#5             D5                E5
e||--------------xxxxx-----------xxxxx-----------------xxxx-------------xxxx-----------------|
b||--------------xxxxx-----------xxxxx-----------------xxxx-------------xxxx-----------------|
g||--------------xxxxx--------6--xxxxx-----------------xxxx---------7---xxxx-----------9-----|
D||------------7-xxxxx--------6- xxxxx------------- 4--xxxx---------7---xxxx-----------9-----|
A||------------7-xxxxx------4----xxxxx--------------4--xxxx----5--------xxxx------7----------|
E||--------5-----xxxxx-----------xxxxx--------2--------xxxx-------------xxxx-----------------|


         A5                   C#
 el tiempo se encargo de recordarnos
        F#5                      D5     r5
que habia llegado le momento de alejarnos...
      A5                   C#
y  asi fuimos todos parte de esta tristeza
  F#5                      D5     r5
 que mas da si sobrevivie una alegria...
    A5                   C#
que haber pasado instantes que el tiempo no borra
F#5                      D5     r5
no hay porque dejar que una lagrima corraaaaaa...


  CORO:
   ======            A5                   C#
              la amistad  un sentimiento que perdura
               F#5                      D5     r5
             que  pone a prueba la barrera mas intensa


* LUEGO DEL CORO SIGUE LOS ACORDES PERO TIENEN QUE SER TOKADOS  KON ARTA FUERZA KARAJO¡¡¡


           A5             C#           F#5                  D5             E5
e||----------------------------------------------------------------------------------|
b||----------------------------------------------------------------------------------|
g||-----------------------6------------------------------------7--------------9------|
D||------------7-(5X)-----6(5X)-----------4-(5X)---------------7(5x)----------9(5X)--|
A||------------7-------4------------------4-----------------5--------------7---------|
E||--------5--------------------------2----------------------------------------------I


BUENO PANA¡¡¡ QUE RECIEN COMIENZAN EN LA GUITARRA NO SE DESANIMEN Y PONGANCE A TOKAR KOMO 
MIERDA¡¡ HASTA DESAFINARLAS ASI KOMO YO QUE LOGRE AUNKE SEA SAKAR LA KANCIÓN K MAS ME 
GUSTA DE ESTOS  BRODERS DE TRAGOKORTO...
 ESTA ROLA S ELA DEDIKO A TODoS MIS AMIGOS DE LA PREVIA FUTBOL CLUB DE KUARTO CICLO NO 
DIGO NOMBRE POR QUE SON MUCHOS..Y  LOS DEL LONZA DE KUARTO CICLO KOMUNI
ACIONES DE LA UAP ...LOS DE MI KOLE A LA PROMO 2001 DEL TRINIDAD]¡¡¡]PARA MIS AMIGOS DE 
PALOMO ..Y QUE EM HAN AKOMPAÑADO A LOS KONCIERTOS
 KOKI,LOBO,TIKITIKI,PABLITO,BILIJHON,FARARA(UNA VEZ),MOUSE Y A LOS PATAS DEL 
KALLAO TAMBIEM JEJEJ ¡¡ A MI PATAS QUE ESTAN ENE EL EXTRANJERO (JIMMI EL LATIN KI
G DE SUECIA¡¡¡ ROMAN EGOAWIL¡¡EL ALEMAN...CLAUDIA DE U.S.A. 
Y JHONNI Y DIEGO MONGO EN U.S.A. TAMBIEM..Y PORSUPUESTO A MI NUEVA AMIGA TATIANA Y ALBERJITA¡¡¡AMI
II...
Y YA SABEN DILE NO A LAS DROGAS.
Suggest correction
Give kudos to tab author, rate the tab!
1 2 3 4 5
comments
print report bad tab
guest
You may want to rate the tab now too:
select rating
Wanna post a correction for this tab? Suggest correction