Oops, an error
Loading. Please wait.

Borracho En El Bar Tab

19 views 1 this week
no commentswrite comment
1 2 3 4 5
3 more votes to show rating
add to favorites
launch autoscroll
font size
0
reset
how to read this tab
guitar tuner
×
Best way to learn
"Borracho En El Bar"
Autoscroll
slow
fast
+/-
esc
set tempo
stop
Intro:
    E5                     C#5       A5          B5
|----------------------------------------------------------|
|----------------------------------------------------------|
|-999999999------------------------------------------------|
|-999999999------------------------------------------------|
|-777777777--7~-77777777777777777777777777777777777777-----|
|----------------------------------------------------------|
       pm..

E5                                   
Aun recuerdo y no puedo olvidar       
C#5                                    
tus besos fríos tan cerca de mi         
A5                                       
me siento solo a reflexionar              
B5                                         
que un tonto fui no lo puedo negar          
                                             Palm mute
E5                                          /
y te marchaste muy lejos de mi             /
C#5                                       /
sabiendo que solo iba a sufrir           /
A5                                      /
no te importo y me dejaste así         /
B5                                    /
seguro ya te olvidaste de mi         /

E5
y ahora lo sé
C#5
nunca fue de verdad
A5
ya comprendí
B5
tu amor por mi jamás fue real


E5                                  
y ahora que paso los días sin ti     
C#5                                   
sentado frente a las olas del mar       Palm mute
A5                                     /
es cuando la brisa me hace recordar   /
B5                             D#5   /
mi rostro enojado de tanto llorar   /


                                 C#5
Se me hace difícil poderte olvidar
E5                            D#5
es que te llevaste lo mejor de mi (mejor de mi)
                          C#5
fui un tonto al dejarme robar (el corazón)
E5                          D#5
sabiendo que lo ibas a destrozar

     E5                       C#5                       A5                       B5
|----------------------------------------------------------------------------------------------------|
|----------------------------------------------------------------------------------------------------|
|----------------------------------------------------------------------------------------------------|
|-----------------6-6-6--------------------6-6-6---------------------6-6-6-------------6-6-6---------|
|--7-7-777--9-9-9-----------4-4-444--9-9-9---------------------9-9-9-------------------------9-9-9---|
|---------------------------------------------------5-5-5-555------------------7-7-777---------------|


E5                                        
Paso las noches borracho en el bar         
C#5                                         
ahogando el recuerdo es peor recordar        Palm mute
A5                                           /
no tengo remedio y no se donde estas        /
B5                                         /
por vaso que tomo te veo llegar           /


E5
y ahora lo sé
C#5
nunca fue de verdad
A5
ya comprendí
B5
tu amor por mi jamás fue real


E5                                  
y ahora que paso los días sin ti     
C#5                                   
sentado frente a las olas del mar       Palm mute
A5                                     /
es cuando la brisa me hace recordar   /
B5                             D#5   /
mi rostro enojado de tanto llorar   /


                                 C#5
Se me hace difícil poderte olvidar
E5                            D#5
es que te llevaste lo mejor de mi (mejor de mi)
                          C#5
fui un tonto al dejarme robar (el corazón)
E5                          D#5
sabiendo que lo ibas a destrozar


     E5                       C#5                       A5                     B5
|----------------------------------------------------------------------------------------------------|
|----------------------------------------------------------------------------------------------------|
|----------------------------------------------------------------------------------------------------|
|-----------------6-6-6--------------------6-6-6---------------------6-6-6-------------6-6-6---------|
|--7-7-777--9-9-9-----------4-4-444--9-9-9---------------------9-9-9-------------------------9-9-9---|
|---------------------------------------------------5-5-5-555------------------7-7-777---------------|x2


|--------------------------------------------------------------------------------------------------------------------------|
|--------------------------------------------------------------------------------------------------------------------------|
|--------------------------------------------------------------------------------------------------------------------------|
|--13h14p1313h14p1313h14p1313h14p1313h14p1313h14-16-14-13h14p1313h14p1313h14p1313h14-14s16-14-13h14p1313h14p1313h14p1313---|
|--------------------------------------------------------------------------------------------------------------------------|
|--------------------------------------------------------------------------------------------------------------------------|


|----------------------------------------|
|----------------------------------------|      (Se repite el circulo
|----------------------------------------|      E5-C#5-A5-B5 hasta el final)
|--14-16-18s19-18-16-14-14-16-14-16-14---|
|----------------------------------------|
|----------------------------------------|x2

|---------------------------------------------------------|
|---------------------------------------------------------|
|------------------------------------------------18-20-21-|
|--14-16-18s19-18-16-14-14-16-14-16-16-18-19-21-----------|
|---------------------------------------------------------|
|---------------------------------------------------------|

|-----------------------------------------------------------------------rápido------------------------------------------------
|-------------------------------------------------------------------------------------------------------------------------------|
|-19-16-16-16-16-17-16-16-19-16-16-17-16-16-17-16-16-16-16-16-17-16-16-16-19-16-16-16-17-16-16-16-19-16-16-16-16-17-16-16-16-19-|
|-------------------------------------------------------------------------------------------------------------------------------|
|-------------------------------------------------------------------------------------------------------------------------------|
|-------------------------------------------------------------------------------------------------------------------------------|
|-------------------------------------------------------------------------------------------------------------------------------|

 ------------------------|
|----------------------------------------------------------|
|--16-16-16-17-16-16-17-16-18s16vs14v----------------------|
|--------------------------------------14-13h14p13---------|
|-------------------------------------------------16-14~---|
|----------------------------------------------------------|
|----------------------------------------------------------|
Suggest correction
Give kudos to tab author, rate the tab!
1 2 3 4 5
comments
print report bad tab
guest
You may want to rate the tab now too:
select rating
Wanna post a correction for this tab? Suggest correction