Oops, an error
Loading. Please wait.

Desilucionado De Un Angel Tab

40 views 1 this week
no commentswrite comment
1 2 3 4 5
3 more votes to show rating
add to favorites
launch autoscroll
font size
0
reset
how to read this tab
guitar tuner
×
Best way to learn
"Desilucionado De Un Angel"
Autoscroll
slow
fast
+/-
esc
set tempo
stop
LAS NOTAS DE LA CANCION ESTAN BIEN PERO AHÍ LES VA LAS TABLATURAS
DEL INTRO

e|-------------------------|
B|----6---6-7-9-7-6---7-6--|
G|--6---6-----------6------|
D|-------------------------|
A|-------------------------|
E|-------------------------|

AKI EMPIEZA LA SEGUNDA GUITARRA
C#5
e|-------------------------|
B|----6---6-7-9-7-6---7-6--|
G|--6---6-----------6------|
D|-------------------------|
A|-------------------------|
E|-------------------------|

G#5
e|-------------------------|
B|----6---6-7-9-7-6---7-6--|
G|--6---6-----------6------|
D|-------------------------|
A|-------------------------|
E|-------------------------|


A#5
e|-------------------------|
B|----6---6-7-9-7-6---7-6--|
G|--6---6-----------6------|
D|-------------------------|
A|-------------------------|
E|-------------------------|


F#5
e|-------------------------|
B|----6---6-6-7-6----7-6-6-|
G|--6---6---------6--------|
D|-------------------------|
A|-------------------------|
E|-------------------------|

SE REPITE UNA VEZ MAS
Suggest correction
Give kudos to tab author, rate the tab!
1 2 3 4 5
comments
print report bad tab
guest
You may want to rate the tab now too:
select rating
Wanna post a correction for this tab? Suggest correction