Oops, an error
Loading. Please wait.

El Burrito Sabanero Tab

181 views 1 this week
no commentswrite comment
1 2 3 4 5
3 more votes to show rating
add to favorites
launch autoscroll
font size
0
reset
how to read this tab
guitar tuner
Autoscroll
slow
fast
+/-
esc
set tempo
stop
Help us to improve Ultimate-Guitar.com Take our survey!
×
e-55-5-5-5-5-5-|
B--------------|
G--------------|
D--------------|
A--------------|
E--------------|
                   D5
Con mi burrito sabanero
       E5        A5
Voy camino de Belén
                   D5
Con mi burrito sabanero
       E5        A5
Voy camino de Belén

      C#5       F#5
Si me ven si me ven
      D5         A5
Voy camino de Belén
      C#5       F#5
Si me ven si me ven
      D5         A5
Voy camino de Belén

                       D5
Con mi burrito voy saltando
       E5         A5
Mi burrito va cantando
                       D5
Con mi burrito voy saltando
       E5         A5
Mi burrito va cantando

      C#5       F#5
Si me ven si me ven
      D5         A5
Voy camino de Belén
      C#5       F#5
Si me ven si me ven
      D5         A5
Voy camino de Belén

Solo

e------------------------------------------------------------|
B------------------------------------------------------------|
G----------------------------6-----------------------------6-|
D-77-7-7-7-7-7-7--77-7-99-79----77-7-7-7-7-7-7--77-7-99-79---|
A------------------------------------------------------------|
E------------------------------------------------------------|

e----------------------------------------------|
B----------------------------------------------|
G---------------------------------7-7-66-------|
D-7-76-7-6---------66-7-7-76-7-6---------99-7~-|
A---------9-7-7-99--------------9--------------|
E----------------------------------------------|


                   D5
Con mi burrito sabanero
       E5        A5
Voy camino de Belén
                   D5
Con mi burrito sabanero
       E5        A5
Voy camino de Belén

      C#5       F#5
Si me ven si me ven
      D5         A5
Voy camino de Belén
      C#5       F#5
Si me ven si me ven
      D5         A5
Voy camino de Belén

                       D5
Con mi burrito voy saltando
       E5         A5
Mi burrito va cantando
                       D5
Con mi burrito voy saltando
       E5         A5
Mi burrito va cantando

      C#5       F#5
Si me ven si me ven
      D5         A5
Voy camino de Belén
      C#5       F#5
Si me ven si me ven
      D5         A5
Voy camino de Belén

saludos pal anorexico, ramero, webera, pinga pal chino gay,
salu2 tmb pa polli, slaterwater, chelo -bn ahi con zuzu-wito,
bra, pom, feo, jhon, chicho-tuvieho- marinsinpipilin, xaxi, etc.
ahh me olvidaba pa la flor mariella angelica gianina marlene
nilda gisela yolanda i como olvidar a sadith ... te amooo vanee
Suggest correction
Give kudos to tab author, rate the tab!
1 2 3 4 5
comments
print report bad tab
guest
You may want to rate the tab now too:
select rating
Wanna post a correction for this tab? Suggest correction