Oops, an error
Loading. Please wait.

La Fa Re Mi Tab

10 views 1 this week
no commentswrite comment
1 2 3 4 5
3 more votes to show rating
add to favorites
launch autoscroll
font size
0
reset
how to read this tab
guitar tuner
Autoscroll
slow
fast
+/-
esc
set tempo
stop
Help us to improve Ultimate-Guitar.com Take our survey!
×
sta kancion es ami parecer una de las mejores de tragokorto y si stas kon
el korazon asta las webas te puede acer pensar un webo
para la unika chika. . .ke kreo me dejo. . .el korazon echo mierda


intro:
 
|------------------------------|
|------------------------------|
|------------------------------|
|------------------------------|
|------------------------------|
|-5--5--5--5--5--5--5--5--5--5-| (las veces ke sea necesario)


|------------------------------|
|------------------------------|
|------------------------------|
|------------------------------|
|------------------------------|
|-0--2--2--2--2--2--2--2--2--2-| 


|------------------------------|
|------------------------------|
|------------------------------|
|------------------------------|
|-5--5--5--5--5--5--5--5--5--5-|
|------------------------------|


|------------------------------|
|------------------------------|
|------------------------------|
|------------------------------|
|-7--7--7--7--7--7--7--7--7--7-|
|------------------------------|


LA5 FA#5 RE MI

(VERSO 1)

LA5                                     FA#5
Kuando por primera vez te vi senti algo fuerte por ti,

RE                                     MI5
pero al enterarme ke estabas kon el mi korazon lloro,

|-12--10--9--12--10--9---------|
|------------------------------|
|------------------------------|
|------------------------------| este punteo va entre kada verso
|------------------------------|
|------------------------------|

LA5                                      FA#5
porke al enterarme ke era mi mejor amigo no tuve opcion,
RE5                                       MI5
desangre mi korazon en una kopa de likor por este amor,
LA5                                   FA#5
Kuando yo te veo kon él mis iluciones se desvanecen,
RE5                                       MI5
pero al observar tus ojos me kedo atrapado en tu prision,
LA5                                                FA#5
hoy ke vuelo a enkontrarte solo pienso en olvidarte y no llorar,
RE5                                MI5
porke al final le pertenece a otro todo tu amor.


(KORO x2)

RE5             FA#5
Solo kiero olvidar tu amor,
RE5        FA#5
donde enkontrare una razon,
RE5   MI5   RE5    LA5
para poder vivir sin ti!!

RE5 LA5 RE5 LA5 RE5 LA5 RE5  MI5


|-----------------10--9------------------10--9-|
|-10--10--10--10---------10--10--10--10--------|
|----------------------------------------------|
|----------------------------------------------|
|----------------------------------------------|
|----------------------------------------------| 


|-----------------10--9----------------------10--9----|
|-12--12--12--12---------12--12--12--12--12---------12|
|-----------------------------------------------------|
|-----------------------------------------------------|
|-----------------------------------------------------|
|-----------------------------------------------------|


|-10--10--9--9--9--9--10--9--10--9--10--9--12--10--9--9--9--9--12--10--9|
|-----------------------------------------------------------------------|
|-----------------------------------------------------------------------|
|-----------------------------------------------------------------------|
|-----------------------------------------------------------------------|
|-----------------------------------------------------------------------|


(VERSO 2)

LA5                                             FA#5
Hoy ke a pasado el tiempo y sigo pensando en ti y no se ke hacer
RE5                                      MI5
trato de olvidar tu amor pero mi korazon se resiste perder
LA5                                         FA#5
kuanto tiempo mas debo esperar para dejar de pensar en ti
RE5                                    MI5
pero al observar tus ojos me enamoro un poko mas de ti
LA5                          FA#5
tu tierna sonrisa me induce a hablar kontigo
RE5                                  MI5
pero no puedo traicionar la konfianza de mi amigo


(KORO x2)

RE5             FA#5
Solo kiero olvidar tu amor,
RE5        FA#5
donde enkontrare una razon,
RE5   MI5   RE5    LA5
para poder vivir sin ti!!


|-----------------10--9------------------10--9-|
|-10--10--10--10---------10--10--10--10--------|
|----------------------------------------------|
|----------------------------------------------|
|----------------------------------------------|
|----------------------------------------------| 


|-----------------10--9------10--9------9---|
|-12--12--12--12---------12---------12------|
|-------------------------------------------|
|-------------------------------------------|
|-------------------------------------------|
|-------------------------------------------|


|-------------10--9--7--------------10--9--7--7--9--10--9--10--12--10--9--10--9-|
|-7--7--7--7------------7--7--7--7----------------------------------------------|
|-------------------------------------------------------------------------------|
|-------------------------------------------------------------------------------|
|-------------------------------------------------------------------------------|
|-------------------------------------------------------------------------------|


|-----------------10--9------------------10--9-|
|-10--10--10--10---------10--10--10--10--------|
|----------------------------------------------|
|----------------------------------------------|
|----------------------------------------------|
|----------------------------------------------| 


|-----------------10--9---------------------10--9-|
|-12--12--12--12---------12--12--12--12--12-------|
|-------------------------------------------------|
|-------------------------------------------------|
|-------------------------------------------------|
|-------------------------------------------------|


|-------------10--9--7--------------10--9--7--10--10--9--10--9--12--10--14--12--10----|
|-7--7--7--7------------7--7--7--7--------------------------------------------------10|
|-------------------------------------------------------------------------------------|
|-------------------------------------------------------------------------------------|
|-------------------------------------------------------------------------------------|
|-------------------------------------------------------------------------------------|
Suggest correction
Give kudos to tab author, rate the tab!
1 2 3 4 5
comments
print report bad tab
guest
You may want to rate the tab now too:
select rating
Wanna post a correction for this tab? Suggest correction