Oops, an error
Loading. Please wait.

Si Piensas Tal Vez Tab

13 views 1 this week
no commentswrite comment
1 2 3 4 5
3 more votes to show rating
add to favorites
launch autoscroll
font size
0
reset
how to read this tab
guitar tuner
×
Best way to learn
"Si Piensas Tal Vez"
Autoscroll
slow
fast
+/-
esc
set tempo
stop
Intro:

Las notas del intro son estas
Escuchen la cancion pa k saken el rasgeo

e|---X---6---7----9------|
B|--11---7---7----9------|
G|--11---8---8---10------|
D|--11---8---9---11------|
A|---9---6---9---11------|
E|-----------7----9------|


e|-----6----7-6---6----7-6---6--9-7-6-------|
B|---7---77-----7---77-----7----------------|

*La cancion va acompañada con las notas mismas notas del intro

Si piensas tal ves k yo te falle
Si piensas tal vez k ya te olvide
Si piensas tal ves k aun no cambie
Olvidalo ya volvamos a empezar

Si sientes que yo me alejo de ti
Si sientes que yo te hago sufrir
Si sientes que yo te causo dolor
Perdoname k esa no es mi intención

* Aca el rasgeo es un poco mas rapido

Entiemdeme k las noches sin ti fue el tiempo k perdi
Contigo no pase si dejamos pasar tantos dias asi
y darnos cuenta al final k podremos seguir

Volverlo a intentar fue mi necesidad no podia pasar mas minutos sin ti
y ahora k todo volvio y estas junto a mi
te pido ahora k te olvides del ayer

e|---X---6---7----9------|
B|--11---7---7----9------|
G|--11---8---8---10------|
D|--11---8---9---11------| se toka un poco rapido
A|---9---6---9---11------|
E|-----------7----9------|


e|-----------------------------------------------------------|
B|---11-12-11-12-11-11-12-11-12-11-11-12-11-12-11-12-11-12---|
G|-----------------------------------------------------------|


Tu sabes bien k a tu lado soy yo
Tu sabes bien k en mi nada cambio
Tu sabes bien y no esta demas decirte nena muero por tu amor
Y k nunca es tarde para volver
Y k nunca es tarde y lo sabes bien
Nunca es tarde y recuerda k todo este tiempo por ti espere

* Aca el rasgeo es un poco mas rapido

Entiemdeme k las noches sin ti fue el tiempo k perdi
Contigo no pase si dejamos pasar tantos dias asi
y darnos cuenta al final k podremos seguir

Volverlo a intentar fue mi necesidad no podia pasar mas minutos sin ti
y ahora k todo volvio y estas junto a mi
te pido ahora k te olvides del ayer mujer??

 F#5    D#5    B5    C#5

|----------------------------|
|----------------------------|
|--------8------4------6-----|
|-4------8------4------6-----|
|-4------6------2------4-----|
|-2--------------------------|


|---------------------|
|---------------------|
|--11-11-11--13--15---|
|---X--X--X---X---X---|
|---9--9--9--11--13---|
|---------------------|

|---------------------------|
|---------------------------|
|-13-13--15--16-16-16--15---|
|--X--X---X---X--X--X---X---|
|-11-11--13--14-14-14--13---|
|---------------------------|
Suggest correction
Give kudos to tab author, rate the tab!
1 2 3 4 5
comments
print report bad tab
guest
You may want to rate the tab now too:
select rating
Wanna post a correction for this tab? Suggest correction