Oops, an error
Loading. Please wait.

Ella Sabe Bien Tab

38 views 1 this week
no commentswrite comment
1 2 3 4 5
3 more votes to show rating
add to favorites
launch autoscroll
font size
0
reset
how to read this tab
guitar tuner
×
Best way to learn
"Ella Sabe Bien"
Autoscroll
slow
fast
+/-
esc
set tempo
stop
Author/Artist: Los Traidores
Title: Ella sabe bien
Album: Radio Babilonia
Excelentisimo tema!!

---------------------------------------------------------------------
---------------------------------------------------------------------
----------------4-2-----6-4-----------------------4-2-----6-4--------
---4-5---4----2-----2/4-------2-0-----4-5---4---2-----2/4-------2-0--
-2-----2---5----------------4-----0-2-----2---5---------------4------
---------------------------------------------------------------------


-------------------------------------------
-------------------------------------------
-------------------------------------------
---4---4-5-4-4-4-4-4/5-4-5-5-5-4-2-0-4/5-4--
-2---2--------------------------------------
--------------------------------------------

----------------------------------
-----------------------------------
--------------------4-2------------
-----4---4-5-4-4-4-----4-4/5-5-5--
5-4-2---2--------------------------
----------------------------------

--------------------------
-------3-5-3-5/9-7-5------
-2-2/4---------------7----
--------------------------
--------------------------
--------------------------

Bm             Em
Ella canta la canción
                 Bm
sobre las tumbas
           Em
la lluvia cae con furia
           Bm                      Em
sobre la triste piel del cementerio
Bm
lágrimas nostálgicas
Em
un viejo sentimiento
Bm
desgarrando el silencio.
Em
Ella sabe bien

(Vuelve a repetir la ?intro? o sino siegue
la base de la guitarra haciendo Bm - Em)


Bm
Días de sol
          Em
noches de muerte
                  Bm
viajando a la deriva
                     Em
en un profundo mar de sueños
             Bm
sin retorno.
                  Em
Ella canta la canción
                 Bm
abrigada en sombras
                   Em
tal vez no puedas ver
                 Bm
ya nada importa.

Ella sabe bien

(repite la intro y luego el punteo inicial)
Y luego le da 3 golpes a Bm y hace
------------------
------------------
------------------
--2h4-2-0---------
----------4-------

Bm                  Em
Ella canta la canción
               Bm
sobre las tumbas
                      Em
la lluvia cae con furia
                          Bm
sobre la triste piel del cementerio

Ella sabe bién.

(Seguir tocando Bm-Em y luego repetir intro)


Saludos espero que les haya gustado este excelentisimo
tema de Traidores!!
Arriba el Rock Uruguayo!!! Traidores not dead!!

vengaran@
Suggest correction
Give kudos to tab author, rate the tab!
1 2 3 4 5
comments
print report bad tab
guest
You may want to rate the tab now too:
select rating
Wanna post a correction for this tab? Suggest correction