Oops, an error
Loading. Please wait.

Flores En Mi Tumba Tab

147 views 1 this week
no commentswrite comment
1 2 3 4 5
3 more votes to show rating
add to favorites
launch autoscroll
font size
0
reset
how to read this tab
guitar tuner
×
Best way to learn
"Flores En Mi Tumba"
Autoscroll
slow
fast
+/-
esc
set tempo
stop
Versión acústica en vivo, del disco En la Profunda Noche.

Intro y Estrofas:

      Am          C         Fmaj7
E|----------|----------|----3--1------------||
B|----0-1---|----0-1---|---1-1--1-1h3-1-----||
G|---2---2--|---0---0--|--2---2--2----------||
D|--2-----2-|--2-----2-|-3------------------||
A|-0--------|-3--------|----------------3-2-||
E|----------|----------|--------------------||

Estrofas:
  Tu mirada en mis ojos
  las lagrimas que caen
  un destello de mi soledad
  un adios, nada mas

  El silencio hiela el día
  sigue siendo solo un dia mas
  de otro tiempo, otra vida
  tal vez un mejor lugar

Estribillo:
  Bb             F         //Estos acordes pueden ir arpegiados
    Flores en mi tumba
              Am
    ¿quien las pondra?
  Bb                 F
    solo flores en mi tumba
                Am           C
    y mucho que olvidar


Estrofas:
  Tus palabras en mi alma
  mi silencio al recordar
  un epitafio muy simple
  que no podras pronunciar

Estribillo:
 Bb                   F
  Pondré flores en mi tumba
                 Am
  ¿quien las pondrá sino?
 Bb                  F
  solo flores en mi tumba
          Am         C
  y nada mas...

Solo:

E|--------------------------|-----------------------------------|-
B|--------------------------|--8-8-6-5-5h6p5-5h6p5--------------|-
G|----5-5-5-7/9-10-9-7-5-5--|-5-5------------------7-5-------10-|-
D|-5h7-7-7------------------|-----------------------------------|-
A|--------------------------|--------------------------5-5/7----|-
E|--------------------------|-----------------------------------|-

E|--8-8/10-10-10-10p8-8-8-7-8---------------|---------------------|-
B|-6-6------------------------8-8-8-8p6-5---|------------------8--|-
G|----------------------------------------5-|----5-5/7----5-7/9-9-|-
D|------------------------------------------|-5h7------5h7--------|-
A|------------------------------------------|---------------------|-
E|------------------------------------------|---------------------|-

E|--------------------------------------|-
B|--------8----------8-6-5-3--3-3p1-1-3-|-
G|-7-5-7/9-9-7h9p7-5---------------2----|-
D|--------------------------------------|-
A|--------------------------------------|-
E|--------------------------------------|-


E|-8--8--7-12-12-10-8--|-5-5-7-7/8--8--8/ 10-10-10-|-12-12-10-10s12-12-12-10-|-
B|-10-10-8-13-13-12-10-|-6-6-8-8/10-10-10/12-12-12-|-13-13-12-12s13-13-13-12-|-
G|---------------------|---------------------------|-------------------------|-
D|---------------------|---------------------------|-------------------------|-
A|---------------------|---------------------------|-------------------------|-
E|---------------------|---------------------------|-------------------------|-

E|--5-5-7-7s8--8--7-5-3-||
B|--6-6-8-8s10-10-8-6-5-||
G|----------------------||
D|----------------------||
A|----------------------||
E|----------------------||

Arriba los Traidores!

Camilo Orquera
Suggest correction
Give kudos to tab author, rate the tab!
1 2 3 4 5
comments
print report bad tab
guest
You may want to rate the tab now too:
select rating
Wanna post a correction for this tab? Suggest correction