Oops, an error
Loading. Please wait.

Viviana Es Una Reaccionaria Tab

31 views 1 this week
no commentswrite comment
1 2 3 4 5
3 more votes to show rating
add to favorites
launch autoscroll
font size
0
reset
how to read this tab
guitar tuner
×
Best way to learn
"Viviana Es Una Reaccionaria"
Autoscroll
slow
fast
+/-
esc
set tempo
stop
---10--12/13-12-10-------------------------------------
---10--------------13--10----10----------10/12-13/10---
---10---------------------12-----12--10----------------
-------------------------------------------------------
-------------------------------------------------------
-------------------------------------------------------


-------------------------------------------------------
--8/10---8-----8---------------------------------------
------------10----10--9--10---9---7--------------------
--------------------------------------567---5-7-5/7----
-------------------------------------------------------
-------------------------------------------------------


-------------------------------------------------------
-------------------5/6--5--5/6--5----------------------
-5----5---------5------------------5------------9---9--
----7----7---7------------------------7--567--7---7----
-------------------------------------------------------
-------------------------------------------------------


------------------------------------------------------
------------------------------------------------------
----9------10--12---10--12-12/14--10--12-10--12--10----
-7----7/-----------------------------------------------
----------------------------------------------------12-
------------------------------------------------------


--13--10-----10--------------------------13-----------
----------13----13--10-----10-13/15--15---------------
-----------------------12-----------------------------
------------------------------------------------------
------------------------------------------------------
------------------------------------------------------

--17ph--15--13--15--13--15----------------------------
----------------------------15--13-----13-----10----10-
-----------------------------------15-----14-----10---
------------------------------------------------------
------------------------------------------------------
------------------------------------------------------


---------------------------13\10--10---8--8-----------
-----------------------10---------10--10-----10-------
--7---8/10---7/9--7---------------10--10--------10----
------------------------------------------------------
------------------------------------------------------
------------------------------------------------------


---------------------------11--12--12--10--8--8/10----
-10---10/11---10\8--10-----12--13--13--10--8--8/10----
------------------------------------------------------
------------------------------------------------------
------------------------------------------------------
------------------------------------------------------
Suggest correction
Give kudos to tab author, rate the tab!
1 2 3 4 5
comments
print report bad tab
guest
You may want to rate the tab now too:
select rating
Wanna post a correction for this tab? Suggest correction