Oops, an error
Loading. Please wait.

Image Of Hope Tab

200 views 1 this week
no commentswrite comment
1 2 3 4 5
please rate
add to favorites
launch autoscroll
font size
0
reset
how to read this tab
guitar tuner
Autoscroll
slow
fast
+/-
esc
set tempo
stop
Help us to improve Ultimate-Guitar.com Take our survey!
×
Author
Band:Trail of Tears
Song:Image of Hope
Album:Profoundemonium
tab by:Antonio Camacho
tuning:EADGBe
email:antonio_camacho4@yahoo.com


        intro
---------------------------------|
---------------------------------|
---------------------------------|
-----------6-88----------6-------|
--6-66-8-9--------66-8-9---88----|
---------------------------------|

-----------------------------------|
-----------------------------------|
-----------------------------------|rpt
-----------6-8---6-8-6-9p8-6---6---|intro 3x
---66-8-9--------------------9-----|
-----------------------------------|

---------------------------------|
---------------------------------|
---------------------------------|
-----------6-88----------6-------|
--6-66-8-9--------66-8-9---88----|
---------------------------------|

--------------------------------|
--------------------------------|
--------------------------------|
-----------6-8---6-8-6-9p8-6----|
---66-8-9-----------------------|
--------------------------------|

-------------------------------|
-------------------------------|
-------------------------------|rpt
--4h6---6h8---6h9---6h8-9-8--6-|several
-------------------------------|times
-------------------------------|


main riff
gtr 1
----------------------------|
----------------------------|
----------------------------|
-6-8-9-8---6-8-6---9-8-6-8--|
----------------------------|
----------------------------|

----------------------------|
----------------------------|
----------------------------|
-6-8-9-8---6-8-6--9-8-------|
----------------------9-8---|
----------------------------|

gtr 2
---------------------------|
---------------------------|
---------------------------|
---------------------------|
--6-8-9-8--6-8-6-9-8-6-8---|
--4-6-7-6--4-6-4-7-6-4-6---|

---------------------------|
---------------------------|
---------------------------|
---------------------------|
--6-8-9-8--6-8-6-9-8-4-3---|
--4-6-7-6--4-6-4-7-6-2-1---|


pre chorus

 Em             G    F#m
-0-0-00-00-0-0--3-3-32-22-2-2----|
-0-0-00-00-0-0--3-3-32-22-2-2----|
-0-0-00-00-0-0--4-4-42-22-2-2----|
-2-2-22-22-2-2--5-5-54-44-4-4----|d=down
-2-2-22-22-2-2--5-5-54-44-4-4----|u=up
-0-0-00-00-0-0--3-3-32-22-2-2----|
 d d du ud d u  d d du ud d u


chorus
----------------------------|
----------------------------|
----------------------------|
----------------------------|rpt
-2222222222555555554444444--|several
-0000000000333333332222222--|times

-------------------------|
-------------------------|
-------------------------|
-6666-86-98--9-8-9-------|
------------6-6-6-6------|
-------------------------|

--------------------------------|
--------------------------------|
--------------------------------|
-9999-11-9--12-11---11-12-11----|
-------------------9--9--9--9---|
--------------------------------|
Suggest correction
Give kudos to tab author, rate the tab!
1 2 3 4 5
comments
print report bad tab
guest
You may want to rate the tab now too:
select rating
Please do not post tabs as comments. Select "correction" instead!