Oops, an error
Loading. Please wait.

Drive By Bass Tab

version 1
version 1

Whole song

Interactive

13,673 views 15 this week
1 commentread comment
1 2 3 4 5
x 11
add to favorites
launch autoscroll
font size
0
reset
guitar tuner
Autoscroll
slow
fast
+/-
esc
set tempo
stop
Help us to improve Ultimate-Guitar.com Take our survey!
×
Author
Difficulty
novice
Train - Drive By

VERSE
G|---------|---------|---------|---------|
D|---------|---------|-2-2-2-2-|---------|
A|-4-4-4-4-|---------|---------|-2-2-2-2-|
E|---------|-5-5-5-5-|---------|---------|

G|---------|---------|---------|---------|
D|---------|---------|-2-2-2-2-|---------|
A|-4-4-4-4-|---------|---------|-2-2-2-2-|
E|---------|-5-5-5-5-|---------|---------|

PRE-CHOURS
G|---------|---------|---------|---------|
D|---------|---------|---------|---------|
A|---------|---------|-4-4-4-4-|-2-2-2-2-|
E|-2-2-2-2-|-5-5-5-5-|---------|---------|

G|---------|---------|---------|---------|
D|---------|---------|---------|---------|
A|---------|---------|---------|---------|
E|-2-2-2-2-|-5-5-5-5-|-4-4-4-4-|-4-4-4-4-|

CHOURS
G|---------|--------|--------|---------|
D|---------|22222222|--------|---------|
A|-------45|--------|22222222|44442222-|
E|-555555--|--------|--------|---------|

G|---------|--------|--------|---------|
D|---------|22222222|--------|---------|
A|-------45|--------|22222222|---------|
E|-555555--|--------|--------|44444444-|

G|---------|--------|--------|---------|
D|---------|22222222|--------|---------|
A|-------45|--------|22222222|44442222-|
E|-555555--|--------|--------|---------|

G|---------|--------|--------|---------|
D|---------|22222222|--------|---------|
A|-------45|--------|--------|---------|
E|-555555--|--------|22222222|44444444-|

VERSE
G|---------|---------|---------|---------|
D|---------|---------|-2-2-2-2-|---------|
A|-4-4-4-4-|---------|---------|-2-2-2-2-|
E|---------|-5-5-5-5-|---------|---------|

G|---------|---------|---------|---------|
D|---------|---------|-2-2-2-2-|---------|
A|-4-4-4-4-|---------|---------|-2-2-2-2-|
E|---------|-5-5-5-5-|---------|---------|

PRE-CHOURS
G|---------|--------|--------|---------|
D|---------|--------|--------|---------|
A|---------|--------|44444444|22222222-|
E|-22222222|55555555|--------|---------|

G|---------|--------|--------|---------|
D|---------|--------|--------|---------|
A|---------|--------|--------|---------|
E|-22222222|55555555|44444444|44444444-|


CHOURS
G|---------|--------|--------|---------|
D|---------|22222222|--------|---------|
A|-------45|--------|22222222|44442222-|
E|-555555--|--------|--------|---------|

G|---------|--------|--------|---------|
D|---------|22222222|--------|---------|
A|-------45|--------|22222222|---------|
E|-555555--|--------|--------|44444444-|

G|---------|--------|--------|---------|
D|---------|22222222|--------|---------|
A|-------45|--------|22222222|44442222-|
E|-555555--|--------|--------|---------|

G|---------|--------|--------|---------|
D|---------|22222222|--------|---------|
A|-------45|--------|--------|---------|
E|-555555--|--------|22222222|44444444-|

BRIDGE
G|---------|---------|---------|---------|
D|---------|---------|-4-------|---------|
A|---------|-4-------|---------|-2-------|
E|---------|---------|---------|-----5---|

G|---------|---------|---------|---------|
D|---------|---------|---------|---------|
A|---------|---------|-2---2---|-2---2---|
E|-4-------|-2-------|---------|---------|

VERSE
G|---------|---------|---------|---------|
D|---------|---------|---------|---------|
A|---------|---------|---------|---------|
E|---------|---------|---------|---------|

CHOURS
G|---------|--------|--------|---------|
D|---------|22222222|--------|---------|
A|-------45|--------|22222222|44442222-|
E|-555555--|--------|--------|---------|

G|---------|--------|--------|---------|
D|---------|22222222|--------|---------|
A|-------45|--------|22222222|---------|
E|-555555--|--------|--------|44444444-|

G|---------|--------|--------|---------|
D|---------|22222222|--------|---------|
A|-------45|--------|22222222|44442222-|
E|-555555--|--------|--------|---------|

G|---------|--------|--------|---------|---|
D|---------|22222222|--------|---------|---|
A|-------45|--------|--------|---------|---|
E|-555555--|--------|22222222|44444444-|-5~|


Tabled by - Alexander Vilemson
Suggest correction
comments
print report bad tab
1 comment total.
0 reply
MJL14 10 May 26, 2013 10:52 AM

Very good!

guest
You may want to rate the tab now too:
select rating
Wanna post a correction for this tab? Suggest correction