Oops, an error
Loading. Please wait.
We have Chord Pro version of Drive By.
It's the closest thing you can get to the original song and it has interactive parts. Check out the tab »
×
by Train
39,958 views 15 this week
no commentswrite comment
1 2 3 4 5
x 7
add to favorites
launch autoscroll
font size
0
reset
how to read this tab
guitar tuner
Autoscroll
slow
fast
+/-
esc
set tempo
stop
Author
#-----------------------------------------------------------------------------#
#-- File created with Instab - http://www.pconline.com/~smcarey/instab.html --#
#-----------------------------------------------------------------------------#

Author/Artist: Train
Title: Drive By


Tuning (eb A D G B E), (eb, D) Down ~ 10%
Acoustic Drop C# Tuning
Live Standard Tuning
Key: (E + A) or (D + C#)


----|--------|--|
----|--------|--|
----|-13--13-|--|
----|-x---14-|2x|
----|-16--16-|--|
----|--------|--|
  

  Intro 



----|--------|--|--------|--|--------|--|--------|--|
----|--------|--|--------|--|--------|--|--------|--|
----|-13--13-|--|-14--14-|--|-9---9--|--|-16--16-|--|
----|-x---14-|2x|-x---14-|2x|-x---9--|2x|-x---16-|4x|
----|-16--16-|--|-16--16-|--|-11--11-|--|-18--18-|--|
----|--------|--|--------|--|--------|--|--------|--|
       
  
  Verse Pluck



----|--------|--|--------|--|--------|--|--------|--|
----|--------|--|--------|--|--------|--|--------|--|
----|-13--13-|--|-14--14-|--|-13--13-|--|-13--13-|--|
----|-x---14-|2x|-x---14-|2x|-x---14-|2x|-x---13-|2x|
----|-16--16-|--|-16--16-|--|-16--15-|--|-11--11-|--|
----|--------|--|--------|--|--------|--|--------|--|
       

  Verse End




----|--------|--|--------|--|--------|--|--------|--|
----|--------|--|--------|--|--------|--|--------|--|
----|-13--13-|--|-9--9---|--|-16-16--|--|-13--13-|--|
----|-x---14-|4x|-x--9---|4x|-x--16--|4x|-x---13-|4x|
----|-16--16-|--|-7--7---|--|-14-14--|--|-11--11-|--|
----|--------|--|--------|--|--------|--|--------|--|
       

  Chorus 



----|------------------------------------|
----|-9----9----10--------9----10--------|
----|-8----9----9----11---8----9----11---|
----|-9----11---11---13---10---11---13---|
----|-11---11---12---14---11---12---14---|
----|------------------------------------|
       

  Bridge Arpeggio     
Suggest correction
comments
print report bad tab
guest
You may want to rate the tab now too:
select rating
Wanna post a correction for this tab? Suggest correction