Oops, an error
Loading. Please wait.

Drive By Bass Tab

version 2
version 2

Whole song

Interactive

3,198 views 3 this week
no commentswrite comment
1 2 3 4 5
please rate
add to favorites
launch autoscroll
font size
0
reset
guitar tuner
Autoscroll
slow
fast
+/-
esc
set tempo
stop
Help us to improve Ultimate-Guitar.com Take our survey!
×
Author
Difficulty
novice
-----------------------------------------------------------------------------
                             Drive By - Train
-----------------------------------------------------------------------------
Tabbed by: bvz

No bass until first Chorus but if you want to fill it in, it goes like this..

Tuning:Standard

VERSE
G|--------|---------|---------|---------|
D|--------|---------|---------|---------|
A|-4-4-4-4|---------|-7-7-7-7-|---------|
E|--------|-5-5-5-5-|---------|-7-7-7-7-|

PRE-CHORUS
G|-----------|------|-----------|
D|-----------|------|-----------|
A|-9--9/12---|-12---|-16--16\14-|
E|-----------|------|-----------|

G|-----------|------|------|------|
D|-----------|------|------|------|
A|-9--9/12---|-12---|-11---|-11---|
E|-----------|------|------|------|

CHORUS
G|---------|---------|---------|---------|
D|---------|---------|---------|---------|
A|---------|-7-7-7-7-|-2-2-2-2-|-4-4-2-2-|
E|-5-5-5-5-|---------|---------|---------|

G|---------|---------|---------|---------|
D|---------|---------|---------|---------|
A|---------|-7-7-7-7-|-2-2-2-2-|-3-3-3-3-|
E|-5-5-5-5-|---------|---------|---------|

G|---------|---------|---------|---------|
D|---------|---------|---------|---------|
A|---------|-7-7-7-7-|-2-2-2-2-|-4-4-2-2-|
E|-5-5-5-5-|---------|---------|---------|

G|---------|---------|---------|---------|
D|---------|---------|---------|---------|
A|---------|-7-7-7-7-|-9-9-9-9-|---------|
E|-5-5-5-5-|---------|---------|-4-4-4-4-|

BRIDGE
G|-----------|------|-------|
D|-----------|------|-------|
A|-9--9/16---|-12---|-14-12-|
E|-----------|------|-------|

G|-------------|-------------|-------------------------|
D|-------------|-------------|-------------------------|
A|-11--11/16---|-14-14-14-14-|-14-14-14-14-14-14-14-14-|
E|-------------|-------------|-------------------------|

Song Makeup

Verse x 2
Pre Chorus x 1
Chorus x 2
Verse x 2
Pre Chorus x 1
Chorus x 2
Bridge x 1
Verse x 1
Chorus x 2

| /  slide up
| \  slide down
Suggest correction
What's this?
You can suggest a correction to this tab. Community and Mods will review your correction and vote to approve or reject it.
comments
We did not receive enough feedback on this tab! Please rate:
print report bad tab
1 2 3 4 5
guest
You may want to rate the tab now too:
select rating
Please do not post tabs as comments. Select "correction" instead!