Oops, an error
Loading. Please wait.

Drops Of Juipiter Bass Tab

2,275 views 1 this week
no commentswrite comment
1 2 3 4 5
please rate
add to favorites
launch autoscroll
font size
0
reset
guitar tuner
Autoscroll
slow
fast
+/-
esc
set tempo
stop
Help us to improve Ultimate-Guitar.com Take our survey!
×
Author
I didn't see too many accurate versions of the bass tab for song(not saying mine's any 
but this is how i play it.

Wait for intro with piano...star when guitar comes in.

Chorus(0:48) "tell me"
 G             D          F           C
G---------------------------------------|
D---------------------------------------|
A--------------5----------------------3-|
E-3-----------------------1-------------| x2(with quarter notes)

Verse
  C               G               F             F
G------------------------------------------------------------------|
D------------------------------------------------------------------|
A-3-3-3-3-3-3-3-3--------------------------------------------------|
E-----------------3-3-3-3-3-3-3-3-1-1-1-1-1-1-1-1-1-1-1-1-1-1-1-1--| x4


Chorus
 G               D               F              C
G---------------------------------------------------------------|
D---------------------------------------------------------------|
A----------------5-5-5-5-5-5-5-5----------------3-3-3-3-3-3-3-3-|
E-3-3-3-3-3-3-3-3----------------1-1-1-1-1-1-1-1----------------| x2


Bridge
C               G               F             F
G------------------------------------------------------------------|
D------------------------------------------------------------------|
A-3-3-3-3-3-3-3-3--------------------------------------------------|
E-----------------3-3-3-3-3-3-3-3-1-1-1-1-1-1-1-1-1-1-1-1-1-1-1-1--| x4

Chorus
G             D          F           C
G---------------------------------------|
D---------------------------------------|
A--------------5----------------------3-|
E-3-----------------------1-------------| x2(with quarter notes)

G               D               F              C
G---------------------------------------------------------------|
D---------------------------------------------------------------|
A----------------5-5-5-5-5-5-5-5----------------3-3-3-3-3-3-3-3-|
E-3-3-3-3-3-3-3-3----------------1-1-1-1-1-1-1-1----------------| x2


Outro "na na na na na na"

G-------------------------------------------------------------------|
D-------------------------------------------------------------------|
A-3--3--3--3--3-3---------------------------------------------------|
E-----------------3--3--3--3--3-3--1--1--1--1--1-1--1--1--1--1--1-1-|x3
Suggest correction
Give kudos to tab author, rate the tab!
1 2 3 4 5
comments
print report bad tab
guest
You may want to rate the tab now too:
select rating
Wanna post a correction for this tab? Suggest correction