Oops, an error
Loading. Please wait.

Drops Of Jupiter Bass

version 1
version 1

Whole song

Interactive

by Train
18,274 views 3 this week
2 commentsread comments
1 2 3 4 5
x 11
add to favorites
launch autoscroll
font size
0
reset
guitar tuner
backing track
0:00
0:00
Autoscroll
slow
fast
+/-
esc
set tempo
stop
Author
Difficulty
novice
-------------------------------------------------------------------------------
			     DROPS OF JUPITER - Train
-------------------------------------------------------------------------------

Tabbed By : Classique

Tuning: Standard (EADG)

Intro is just piano, then the bass comes in at "Tell me, did you sail across the sun..."

(This is tabbed in sections so it's easier to read)

G|---------------------------------------------------------------------------|
D|-----------------0--------0------------------------------------------------|
A|---------------------------3---------------------3-------------------------|
E|-3--------35---------------------1-----------------------------------------|

G|---------------------------------------------------------------------------|
D|---------------0---------57/12---------------------------------------------|
A|----------------------------------------------7-8--------------------------|
E|-3--------35---------------------------------------------------------------|

G|---------------------------------------------------------------------------|
D|---------2-3-----------0-2-------------------------------------------------|
A|-3-------------------------------------------------------------------------|
E|---------------5-------------1---------1-----------------------------------|

           (x3 and then)

G|---------------------------------------------------------------------------|
D|---------2-3-----------0-2-------------------------------------------------|
A|-3-------------------------------------------------------------------------|
E|---------------5-------------11--------11----------------------------------|

Repeat each section as necessary, these are the only sections I found in the song so if
doesn't sound right just try using a different section. There is one part where it plays
notes a bit higher then I tabbed, but it made no difference when played...if you really 
you can just play the same not in a higher octave. Cheers!


| /  slide up
| \  slide down
| h  hammer-on
| p  pull-off
| ~  vibrato
| +  harmonic
| x  Mute note
===============================================================================
Suggest correction
comments
print report bad tab
2 comments total.
0 reply
too0003 10 Apr 21, 2013 09:59 PM

This tab is hard to read! it looks líke you put more than 24 frets on! Good try1

0 reply
too0003 10 Apr 21, 2013 10:00 PM

LIKE*......

guest
You may want to rate the tab now too:
select rating
Wanna post a correction for this tab? Suggest correction