Oops, an error
Loading. Please wait.

Feels Good At First Tab

version 2
version 2

Whole song

13,272 views 18 this week
5 commentsread comments
1 2 3 4 5
excellent!
x 23
add to favorites
launch autoscroll
font size
0
reset
how to read this tab
guitar tuner
Autoscroll
slow
fast
+/-
esc
set tempo
stop
Help us to improve Ultimate-Guitar.com Take our survey!
×
Author
Difficulty
novice
-------------------------------------------------------------------------------
                     FEELS GOOD AT FIRST - TRAIN
-------------------------------------------------------------------------------
Tabbed by: stokerjd
Email: stokerjd@gmail.com

Tuning: standard
no capo

ok so i had a hard time picking out the chords til i realized that it's not really
chords at all. rather a "bass/strum" picking where the bass changes every once in a 
while. i
indicated the bass change with an asterisk* which should make it easier to learn it. 
there's plenty of repitition but there isn't really a chorus.

4/7/12
so thanks to Richard Burke, i was told that the 2's on the bottom strings that i had
written before sound better as 3's. to his credit, that definitely sounds better.
ironically, that's how i've been playing it i just didn't tab it correctly. sorry for 
holding back on ya!


intro
e|-----3---3---3---3----3---3---3---3------------------------------|
B|-----3---3---3---3----3---3---3---3------------------------------|
G|-----0---0---0---0----0---0---0---0------------------------------|
D|-----------------------------------------------------------------|
A|-----------------------------------------------------------------|
E|---3---3---3---3----3---3---3---3--------------------------------|


verse1
e|-----3---3---3---3----3---3---3---3----3---3---3---3----3---3---3---3--|
B|-----3---3---3---3----3---3---3---3----3---3---3---3----3---3---3---3--|
G|-----0---0---0---0----0---0---0---0----0---0---0---0----0---0---0---0--|
D|------------------------------------------------------0----------------|
A|--------------------3---3---3---3----0---0---0---0--------3---2---0----|
E|---3---3---3---3-------------------------------------------------------|

*Teach me to fall, and i'll *teach you to sing. *When life keeps stealing your
*me-*lo-*dy. *A-


e|-----3---3---3---3----3---3---3---3----3---3---3---3----3---3---3---3--|
B|-----3---3---3---3----3---3---3---3----3---3---3---3----3---3---3---3--|
G|-----0---0---0---0----0---0---0---0----0---0---0---0----0---0---0---0--|
D|------------------------------------------------------0----------------|
A|--------------------3---3---3---3----0---0---0---0--------3---2---0----|
E|---3---3---3---3-------------------------------------------------------|

[A]*round your finger *I'll be a string. *I will forget *ev-*ry-*thing *I


e|-----3---3---3---3----3---3---3---3----3---3---3---3---------------|
B|-----3---3---3---3----3---3---3---3----3---3---3---3---------------|
G|-----0---0---0---0----0---0---0---0----0---0---0---0---------------|
D|-------------------------------------------------------------------|
A|--------------------3---3---3---3----------------------------------|
E|---0---0---0---0---------------------0---0---0---0-----------------|

*know... about love*, i don't *know, about



e|-----3---3---3---3----3---3---3---3----3---3---3---3----3---3---3---3--|
B|-----3---3---3---3----3---3---3---3----3---3---3---3----3---3---3---3--|
G|-----0---0---0---0----0---0---0---0----0---0---0---0----0---0---0---0--|
D|-----------------------------------------------------------------------|
A|---0---0---0---0----0---0---0---0--------------------------------------|
E|-------------------------------------3---3---3---3----3---3---3---3----|

*love. Sure feels good at *first.


e|-----3---3---3---3----3---3---3---3----3---3---3---3----3---3---3---3--|
B|-----3---3---3---3----3---3---3---3----3---3---3---3----3---3---3---3--|
G|-----0---0---0---0----0---0---0---0----0---0---0---0----0---0---0---0--|
D|------------------------------------------------------0----------------|
A|--------------------3---3---3---3----0---0---0---0--------3---2---0----|
E|---3---3---3---3-------------------------------------------------------|

I'd learn to dance if you *promise not to laugh and i *end up in a cast
from *fall-*ing *ov-*er


e|-----3---3---3---3----3---3---3---3----3---3---3---3----3---3---3---3--|
B|-----3---3---3---3----3---3---3---3----3---3---3---3----3---3---3---3--|
G|-----0---0---0---0----0---0---0---0----0---0---0---0----0---0---0---0--|
D|------------------------------------------------------0----------------|
A|--------------------3---3---3---3----0---0---0---0--------3---2---0----|
E|---3---3---3---3-------------------------------------------------------|

*And you can't get mad when some *girl you think i had puts a *story in your head when i
*hard-*ly *know *her


e|-----3---3---3---3----3---3---3---3----3---3---3---3---------------|
B|-----3---3---3---3----3---3---3---3----3---3---3---3---------------|
G|-----0---0---0---0----0---0---0---0----0---0---0---0---------------|
D|-------------------------------------------------------------------|
A|--------------------3---3---3---3----------------------------------|
E|---0---0---0---0---------------------0---0---0---0-----------------|

*so about love*, i don't *know, about


e|-----3---3---3---3----3---3---3---3----3---3---3---3---------------|
B|-----3---3---3---3----3---3---3---3----3---3---3---3---------------|
G|-----0---0---0---0----0---0---0---0----0---0---0---0---------------|
D|-------------------------------------------------------------------|
A|---0---0---0---0----0---0---0---0----------------------------------|
E|-------------------------------------3---3---3---3-----------------|

*love. it sure feels good at* first


e|-----3---3---3---3----3---3---3---3----3---3----3---3----3---3---3---3--|
B|-----3---3---3---3----3---3---3---3----3---3----3---3----3---3---3---3--|
G|-----0---0---0---0----0---0---0---0----0---0----0---0----0---0---0---0--|
D|------------------------------------------------------------------------|
A|-------------------------------------3---3----2---2----0---0---0---0----|
E|---3---3---3---3----3---3---3---3---------------------------------------|

Ooh, every spring needs a honey bee that stings. some *things *can't *change.


e|-----3---3---3---3----3---3---3---3----3---3----3---3----3---3--------|
B|-----3---3---3---3----3---3---3---3----3---3----3---3----3---3--------|
G|-----0---0---0---0----0---0---0---0----0---0----0---0----0---0--------|
D|----------------------------------------------------------------------|
A|-------------------------------------3---3----2---2----0---0----------|
E|---3---3---3---3----3---3---3---3-------------------------------------|

*Ooh, every fire get too close and it reminds you *things *can *change


e|-----3---3----3---3---3---3------------3---3---3---3----3---3---3---3---|
B|-----3---3----3---3---3---3------------3---3---3---3----3---3---3---3---|
G|-----0---0----0---0---0---0------------0---0---0---0----0---0---0---0---|
D|-----------------------------0------------------------------------------|
A|------------------------------------------------------------------------|
E|---3---3----2---2---2---2-------------3---3---3---3----3---3---3---3----|

*in *love (*) but it sure feels good at* first


e|-----3---3---3---3----3---3---3---3----3---3---3---3----3---3---3---3--|
B|-----3---3---3---3----3---3---3---3----3---3---3---3----3---3---3---3--|
G|-----0---0---0---0----0---0---0---0----0---0---0---0----0---0---0---0--|
D|------------------------------------------------------0----------------|
A|--------------------3---3---3---3----0---0---0---0--------3---2---0----|
E|---3---3---3---3-------------------------------------------------------|

For every heartbreak, there's a *sermon to be said and this *pastor in my head, is
preaching *to *the *choi-*r


e|-----3---3---3---3----3---3---3---3----3---3---3---3----3---3---3---3--|
B|-----3---3---3---3----3---3---3---3----3---3---3---3----3---3---3---3--|
G|-----0---0---0---0----0---0---0---0----0---0---0---0----0---0---0---0--|
D|------------------------------------------------------0----------------|
A|--------------------3---3---3---3----0---0---0---0--------3---2---0----|
E|---3---3---3---3-------------------------------------------------------|

*don't get me wrong cause it's *too soon to decide, but this *ain't my first rodeo when
my *hearts *been *roped *and


e|-----3---3---3---3----3---3---3---3----3---3---3---3--------|
B|-----3---3---3---3----3---3---3---3----3---3---3---3--------|
G|-----0---0---0---0----0---0---0---0----0---0---0---0--------|
D|------------------------------------------------------------|
A|--------------------3---3---3---3---------------------------|
E|---0---0---0---0---------------------0---0---0---0----------|

*tied in love*, i don't *know, about


e|-----3---3---3---3----3---3---3---3----3---3---3---3--------|
B|-----3---3---3---3----3---3---3---3----3---3---3---3--------|
G|-----0---0---0---0----0---0---0---0----0---0---0---0--------|
D|------------------------------------------------------------|
A|---0---0---0---0----0---0---0---0---------------------------|
E|-------------------------------------3---3---3---3----------|

*love but it sure feels good at* first.


e|-----3---3---3---3----3---3---3---3----3---3----3---3----3---3---3---3-----|
B|-----3---3---3---3----3---3---3---3----3---3----3---3----3---3---3---3-----|
G|-----0---0---0---0----0---0---0---0----0---0----0---0----0---0---0---0-----|
D|---------------------------------------------------------------------------|
A|-------------------------------------3---3----2---2----0---0---0---0-------|
E|---3---3---3---3----3---3---3---3------------------------------------------|

Ooh every autumn, colors come that you've forgotten. some *things *can't *change


e|-----3---3---3---3----3---3---3---3----3---3----3---3----3---3--------|
B|-----3---3---3---3----3---3---3---3----3---3----3---3----3---3--------|
G|-----0---0---0---0----0---0---0---0----0---0----0---0----0---0--------|
D|----------------------------------------------------------------------|
A|-------------------------------------3---3----2---2----0---0----------|
E|---3---3---3---3----3---3---3---3-------------------------------------|

*Ooh every frost, some live and some are lost. *things *can *change *in


e|-----3---3----3---3---3---3------------3---3---3---3----3---3---3---3---|
B|-----3---3----3---3---3---3------------3---3---3---3----3---3---3---3---|
G|-----0---0----0---0---0---0------------0---0---0---0----0---0---0---3---|
D|-----------------------------0------------------------------------------|
A|------------------------------------------------------------------------|
E|---3---3----2---2---2---2-------------3---3---3---3----3---3---3---3----|

*in *love (*) But it sure feels good at* first.


e|-----3---3---3---3----3---3---3---3----3---3----3---3----3---3---3---3-----|
B|-----3---3---3---3----3---3---3---3----3---3----3---3----3---3---3---3-----|
G|-----0---0---0---0----0---0---0---0----0---0----0---0----0---0---0---0-----|
D|---------------------------------------------------------------------------|
A|-------------------------------------3---3----2---2----0---0---0---0-------|
E|---3---3---3---3----3---3---3---3------------------------------------------|

*NA na na NA na na nanananana, *mmm *mmm *mmm


e|-----3---3---3---3----3---3---3---3----3---3----3---3----3---3--------|
B|-----3---3---3---3----3---3---3---3----3---3----3---3----3---3--------|
G|-----0---0---0---0----0---0---0---0----0---0----0---0----0---0--------|
D|----------------------------------------------------------------------|
A|-------------------------------------3---3----2---2----0---0----------|
E|---3---3---3---3----3---3---3---3-------------------------------------|

*NA na na NA na na nanananana, *mm *mm *mm *mm


e|-----3---3----3---3---3---3----------------------3-----------|
B|-----3---3----3---3---3---3----------------------3-----------|
G|-----0---0----0---0---0---0----------------------0-----------|
D|-----------------------------0-------------------0-----------|
A|-------------------------------------------------2-----------|
E|---3---3----2---2---2---2------------------------3-----------|

*mm *mmm (*)  But it sure felt good at [*]first.



************************************
Suggest correction
What's this?
You can suggest a correction to this tab. Community and Mods will review your correction and vote to approve or reject it.
comments
print report bad tab
5 comments total. Showing first comments.
0 reply
itsjohnnykevin 12 wrote on September 16 2012, 12:20 am

You deserve my clap

Thanks mate.

0 reply
MooseDa4th 11 wrote on January 17 2013, 02:41 pm

the "*" really help thanks

0 reply
kat7895123 417 wrote on January 2 2014, 10:25 am

Man, thank you!:)

guest
You may want to rate the tab now too:
select rating
Please do not post tabs as comments. Select "correction" instead!