Oops, an error
Loading. Please wait.

Hey Soul Sister Bass Tab

version 1
version 1

Whole song

Interactive

66,838 views 72 this week
2 commentsread comments
1 2 3 4 5
accurate
x 8
add to favorites
launch autoscroll
font size
0
reset
guitar tuner
Autoscroll
slow
fast
+/-
esc
set tempo
stop
Help us to improve Ultimate-Guitar.com Take our survey!
×
Author
Difficulty
novice
Hey Soul Sister-Train
Bass Tab
Tabbed by Teamnomorals

Bass doesn't come in untill verse 2

-Verses2,3,4-
G |: 9-------8-------------------------9------8------------------------------|
D |: -----------------11-------7----------------------11-------7---9---------|
A |: ------------------------------------------------------------------------|
E |: ------------------------------------------------------------------------|

-Chorus1-
G |: 9-------8----9-6-------------9---------------9------------------9-------|
D |: -----------------7-------9-----9-7-------9-----9-7-------9--------------|
A |: ------------------------------------------------------------------------|
E |: ------------------------------------------------------------------------|

     hey, hey, hey...
G |: -------------------------------------------------------------------------|
D |: --9------11-------7---9--------------------------------------------------|
A |: -------------------------------------------------------------------------|
E |: -------------------------------------------------------------------------|

-Verse3-
-Verse4-

-Chorus2-
G |: ------------------------------------------------------------------------|
D |: ------------------------------------------------------------------------|
A |: --------------7---------------7---------------7---------------6-9-7-----|
E |: 12/5------7-----7-5-------7-----7-5-------7-----7-5-------7-9-----------|

-Verses5
G |: ------------------------------------------------------------------------|
D |: ------------------------------------------------------------------------|
A |: ------------------------------------------------------------------------|
E |: 7-----9----(9)----(9)----7-----(7)-----7-----7-579---7---5---7----------|

-Chorus Pt2-
     fair you know...
G |: -------------------------------------------------------------------------|
D |: -------------------------------------------------------------------------|
A |: 7------------------7---------------6-9-7-----------7---------------6-9-7-|
E |: --7-5-------7--------7-5---5-5-7-9-------------7-----7-5---5-5-7-9-------|

     hey,hey, hey....X2

G |: ------------------------------------------------------------------------|
D |: ------------------------------------------------------------------------|
A |: ------------------------7-----------------------------------------------|
E |: 7-------9-------5---7---------------------------------------------------|
Suggest correction
comments
print report bad tab
2 comments total.
0 reply
TheCommieDuck 10 wrote on June 6 2010, 05:55 am

It's ok, but:
The bass doesn't start until 2:01, so Chorus 2.
I think there's a few notes missing.

Otherwise, good tab. 4 stars. :D

0 reply
yor2cool 10 wrote on April 1 2011, 05:47 am

Like this tab! Clear to begin with, but I don't quite get v5 or the end of chorus2, or any of chorus pt2. But I'm no good at reading tab, so could be my fault! =)All in all, 4 stars

guest
You may want to rate the tab now too:
select rating
Please do not post tabs as comments. Select "correction" instead!