Oops, an error
Loading. Please wait.

Hey Soul Sister Chords

version 3
version 3
212,251 views 57 this week
6 commentsread comments
1 2 3 4 5
x 18
add to favorites
launch autoscroll
font size
0
reset
transpose
0
reset
display chords
guitar tuner
Autoscroll
slow
fast
+/-
esc
set tempo
stop
Help us to improve Ultimate-Guitar.com Take our survey!
×
Author
Capo
Tabbers playing skills
2nd fret
advanced
Just got this song on iTunes. 

Artist: Train
Song: Hey, Soul Sister
Album: Hey, Soul Sister-Single or Save Me, San Francisco

CAPO 2

[Intro]
     D      A      Bm     G         
e----2------5-------7-----3--------------------------------|
b----3------5-------7-----3--------------------------------|
g----2------6-------7-----4--------------------------------|
d----0------7-------9-----5--------------------------------|
a----------------------------------------------------------|
e----------------------------------------------------------|
   "Hey......Hey...Hey....."

[Verse]
          D      A     Bm    G      
e---------2------5------7----3---------------------------------|
b---------3------5------7----3---------------------------------|
g---------2------6------7----4---------------------------------|
d---------0------7------9----5---------------------------------|
a--------------------------------------------------------------|
e--------------------------------------------------------------|
 "You're lipstick stains....."
 "Your sweet moving..."

   D    A           Bm       G    A
e--2----5------------7-------3----5----------------------------|
b--3----5------------7-------3----5----------------------------|
g--2----6------------7-------4----6----------------------------|
d--0----7------------9-------5----7----------------------------|
a--------------------------------------------------------------|
e--------------------------------------------------------------|
  "..let you blow my mind..."
  "..Who's one of my kind..."


[Chorus]
   G     A    D        
e--3-----5----2------------------------------------------------|
b--3-----5----3------------------------------------------------|
g--4-----6----2-x3---------------------------------------------|
d--5-----7----0------------------------------------------------|
a--------------------------------------------------------------|
e--------------------------------------------------------------|
  "Hey, soul sister..."

    G    A   
e---3----5-----------------------------------------------------|
b---3----5-----------------------------------------------------|
g---4----6----(hold A chord)-----------------------------------|
d---5----7-----------------------------------------------------|
a--------------------------------------------------------------|
e--------------------------------------------------------------|

  "Tonight...."


(BACK TO VERSE!!!)

[Bridge]
   D   A   Bm    
e--2---5----7--------------------------------------------------|
b--3---5----7--------------------------------------------------|
g--2---6----7--x2----------------------------------------------|
d--0---7----9--------------------------------------------------|
a--------------------------------------------------------------|
e--------------------------------------------------------------|
  "Well you can cut a rug..."

(Back to chorus)

LYRICS:

Heeey heeeey heeeeey 

Your lipstick stains 
On the front lobe of my left side brains 
I knew I wouldn't forget you 
And so I went and let you blow my mind 
Your sweet moving 
The smell of you in every single dream I dream 
I knew when we collided you're the one I have decided 
Who's one of my kind 

Hey soul sister
Ain't that mister mister on the radio, stereo 
The way you move ain't fair you know 
Hey soul sister
I don't wanna miss a single thing you do tonight 

Heeey heeeey heeeey 

Just in time
I'm so glad you have a one track mind like me 
You gave my life direction 
A game show love connection, we can't deny 
I'm so obsessed 
My heart is bound to beat right out my untrimmed chest 
I believe in you, like a virgin, you're Madonna 
And I'm always gonna wanna blow your mind 

Hey soul sister, ain't that mister mister on the radio, stereo 
The way you move ain't fair you know 
Hey soul sister, I don't wanna miss a single thing you do tonight 

Well you can cut a rug 
Watching you is the only drug I need 
So gangster, I'm so thug 
You're the only one I'm dreaming of 
You see I can be myself now finally 
In fact there's nothing I cant be 
I want the world to see you'll be with me 

Hey soul sister, ain't that mister mister on the radio, stereo 
The way you move ain't fair you know 
Hey soul sister, I don't wanna miss a single thing you do tonight 
Hey soul sister, I don't wanna miss a single thing you do tonight 
Heeey heeeey heeeeey (tonight) 
Heeey heeeey heeeeey (tonight)



....so that's basically it.
Rate and comment
Suggest correction
comments
print report bad tab
6 comments total. Showing first comments.
+1 reply
Guitarfreak809 80 Nov 23, 2009 10:06 PM

hey great job on this tab
love the song
nice job... 5 stars

0 reply
shaynabeth 84 Dec 22, 2009 02:43 PM

great song, great tab

0 reply
gogreenguitar 10 Dec 22, 2009 11:33 PM

Love this song!!! ty...why did i not find this earlier

guest
You may want to rate the tab now too:
select rating
Wanna post a correction for this tab? Suggest correction