Oops, an error
Loading. Please wait.

Homesick Tab

1,070 views 3 this week
no commentswrite comment
1 2 3 4 5
please rate
add to favorites
launch autoscroll
font size
0
reset
how to read this tab
guitar tuner
Autoscroll
slow
fast
+/-
esc
set tempo
stop
Help us to improve Ultimate-Guitar.com Take our survey!
×
Author
Intro - Rhythm
D-----0-0-----0-------0-0-0----0-0---------0-0-0-----0-------0-0-------|
A-----0-0---0-0-------0-0-0----0-0---------0-0-0---0-0-------0-0-------|
G-----7-7---7---------7-7-9/11-9-----------X-X-X---7---------7---5-4-4-|
D-7h9-0-----0-----7h9-0---0----0-----------0-0-0---0-----7h9-0---X-X-X-|
A---------0-----0----------------------0---------0-----0---------7-5-5-|
D---------0-----0-------------------10---9-------0-----0---------------|


Verse 1 - Rhythm
Play Intro-Rhythm 2x with this at the end of the 2nd:
|---|
|---|
|-2-|
|-0-|
|---|
|---|



Bridge 1 - Rhythm
|----------------------------------------------------------------
|-----0---0-----------------0---0---0---0------0---0---2---------
|---2-2---2---0-0---0-0---2-2---2---5---7----2-2---2---0-0---0-0-
|---2---2-----0-0---0-0---2---2-----5---7----2---2-----0-0---0-0-
|-0-0---0---2-2-----X---0-0---0---3-3-5-5--0-0---0---2-2-----X---
|-----------------5----------------------------------------5-----

Bridge 1 - Rhythm (cont.)
-----------------
-----0---0---0---
---2-2---2---5-7-
---2---2-----5-7-
-0-0---0---3-3-5-
-----------------

Bridge 1 - Lead
e----------------------------|
B----------------------------|
G-1/2/4--1/2/7--1/2/4--1/2/7-|
D-1/2/4--1/2/7--1/2/4--1/2/7-|
A----------------------------|
E----------------------------|

Bridge 1 - Alt. guitar
Sounds like they've got some kind of pedal adding
the same note played, but an octave up on this section
*note* the solo1 alt. guitar section appears to be
without
this effect.
|-------------------------------|
|-------------------------------|
|-------------------------------|
|---2-------2-------2-------2---|
|-0---0---0---0---0---0---0---0-|
|-------------------------------|

Verse 2 - Rhythm
Play Verse1-Rhythm

Verse 2 - Lead
|--------------------|
|--------------------|
|-5\4/5\4/5\4-----7--|
|-------------4/7----|
|--------------------|
|--------------------|

Bridge 2 - Rhythm

Bridge 2 - Lead
Repeat Bridge1-Lead

Bridge 2 - Alt. guitar
Play Bridge1-Alt.guitar but add to the end:
|---------------|
|---------------|
|-----0-------0-|
|---2-------4---|
|-3-----3/5-----|
|---------------|



Chorus 1 - Rhythm (repeat 1x)
At this point the fill in music all but drowns out the
Acoustic.
I can hear him beating on the strings but these notes
are just
a guess (albeit a good one ;P) I'm probably confusing
the low notes
with the bass guitar but it would make sense that
they're similar.
|---0---0---0---0-0---0---0---0---0-0-|
|---0---0---0---0-0---0---0---0---0-0-|
|---2---2---0---2-----2---2---4---2---|
|-0-0---0---0---0---0-0---0---0---0---|
|-0---3---2---0-----0---3-----X-0-----|
|-0-----------------0-------5---------|

Chorus 1 - Lead (repeat 3x)
|-------------------------------------------------------------------------|
|-------------------------------------------------------------------------|
|------------------12-12-12-12-12-12--------------------------------------|
|-12--12-12-12-12--12-12-12-12-12-12---9--9--9--9--9--9--12-12-12-12-12-12|
|-12--12-12-12-12---------------------10-10-10-10-10-10--12-12-12-12-12-12|
|-------------------------------------------------------------------------|

Chorus - Alt. guitar (repeat 3x)
|---|
|-3-|
|-2-|
|-0-|
|---|
|---|

Solo 1 - Rhythm
|---0---0---0---0---0---0---0---0-|
|---0---0---0---0---0---0---0---0-|
|---2---2---2---0---2---2---2---4-|
|-0-0-0-0---0---0-0-0-0-0---0---0-|
|-0---0---3---2---0---0---3-----X-|
|-0---0-----------0---0-------5---|

Solo 1 - Lead
|---------------------------------------------10\8---------------------
|----------------------------------------7/10------8\7-----------------
|-----7\5--5\4/5\4/5\4-----7--7/11-7-------------------7-7\5-----7-7\5-
|-5/7------------------5/7-----------7\5---------------------5/7---7\5-
|----------------------------------------------------------------------
|----------------------------------------------------------------------

Solo 1 - Lead (cont.)
------------10---------------------------------------|
-8\7---7/10------------------------------------------|
-----7----------5\4/5\4/5\4-----7-7/11-7-------------|
----------------------------5/7----------7\5---------|
---------------------------------------------5-5/9-5-|
-----------------------------------------------------|

Solo 1 - Alt. guitar (repeat 15x)
|---------|
|-----3---|
|-2-------|
|---0---0-|
|---------|
|---------


Verse 3 - Rhythm
Play Chorus1-Rhythm

Verse 3 - Lead
|-----------------------------|
|-----------------------------|
|-5\4-----7------7------7-7---|
|-----5/7----5/7----5/7-----7-|
|-----------------------------|
|-----------------------------|

Bridge 3 - Rhythm
Play Bridge2-Rhythm

Bridge 3 - Lead
|--------------------------------|
|--------------------------------|
|-1/2/4--1/2/7--1/2/4--1/2-2/7-7-|
|-1/2/4--1/2/7--1/2/4--1/2-2/7-7-|
|--------------------------------|
|--------------------------------|

Bridge 3 - Alt. guitar
Play Bridge2-Alt.guitar


Chorus 2 - Rhythm
Play Chorus1-Rhythm

Chorus 2 - Lead
Play Chorus1-Lead

Chorus 2 - Alt. guitar
Play Chorus1-Alt.guitar

-------------
Solo 2 - Rhythm
Play Chorus1-Rhythm

Solo 2 - Lead
|------10----10----10----10------10----10----10/14-10------
|-8/10----10----10----10----8/10----10----10----------10\7-
|----------------------------------------------------------
|----------------------------------------------------------
|----------------------------------------------------------
|----------------------------------------------------------

Solo 2 - Lead (cont.)
-15\14----15/17--15\14------------------------------------------10------
-------15--------------15-15\13-13/15--8\7-----------8\7---7/10---------
-------------------------------------------7-7\5---------7--------------
-------------------------------------------------5/7---------------12/5-
------------------------------------------------------------------------
------------------------------------------------------------------------

Solo 2 - Lead (cont.)
-------------------------------------10-10------|
--------------------------------7/10-------10\3-|
-5\4/5\4/5\4-----7-7/11-----5/7-----------------|
-------------5/7--------4/5-5/7-----------------|
------------------------------------------------|
------------------------------------------------|

Solo 2 - Alt. guitar
Play Chorus1-Alt. guitar

Solo 2 - Alt. guitar 2
Play Chorus1-Lead

-------------
Chorus 3 - Rhythm
Play Chorus3-Rhythm

Chorus 3 - Lead
Play Chorus1-Lead

Chorus 3 - Alt. guitar
Play Chorus1-Alt.guitar


-------------
Outtro - Rhythm
|-----0-0-----0--------0---------0-|
|-----0-0---0-0------0-0---------0-|
|-----7-7---7--------7---5-4-4\2-2-|
|-7h9-0-----0----7h9-0---X-X-X---0-|
|---------0--------------7-5-5---X-|
|---------0----------------------3-|

 
   

 
Suggest correction
Give kudos to tab author, rate the tab!
1 2 3 4 5
comments
print report bad tab
guest
You may want to rate the tab now too:
select rating
Please do not post tabs as comments. Select "correction" instead!