Oops, an error
Loading. Please wait.
We have Chord Pro version of Marry Me.
It's the closest thing you can get to the original song and it has interactive parts. Check out the tab »
×

Marry Me chords

by Train
148 views 6 this week
no commentswrite comment
1 2 3 4 5
1 last vote to show rating
add to favorites
×
Save as Personal and add changes to this tab that will be seen only by you. Learn more ›
×
You can save this tab as Personal to edit and correct it or add notes. All changes will be seen only by you. Learn more »
launch autoscroll
font size
0
reset
transpose
0
reset
simplify chords
display chords
guitar tuner
edit
Autoscroll
slow
fast
+/-
esc
set tempo
stop
Author
Difficulty
About this tab version
Tablature guide embedded with printable formatting. Was this info helpful? Yes No
Strumming
There is no strumming pattern for this song yet. and get +5 IQ
Train - Marry Me

Intro                                          
  C/E             |                |Fsus2           |                |
e|----------------|----------------|----------------|----------------|
B|1---------1-----|1---------1-----|1---------1-----|1---------1-----|
G|------0-------0-|------0-------0-|------0-------0-|------0-------0-|
D|----2-------2---|----2-------2---|----3-------3---|----3-------3---|
A|----------------|----------------|----------------|----------------|
E|0-------0-------|0-------0-------|1-------1-------|1-------1-------|

  C/E             |                |Fsus2           |*               ||
  ----------------|----------------|----------------|----------------|
  1---------1-----|1---------1-----|1---------1-----|1---------------|
  ------0-------0-|------0-------0-|------0-------0-|----------------|
  ----2-------2---|----2-------2---|----3-------3---|----------------|
  ----------------|----------------|----------------|----------------|
  0-------0-------|0-------0-------|1-------1-------|1---------------|

Verse 1
  C               |                |G(11)/B         |G/B             |
 -----------------|----------------|----------------|----------------|
 -1---------1-----|1---------1-----|1---------1-----|3---------3-----|
 -------0-------0-|------0-------0-|------0-------0-|------0-------0-|
 -----2-------2---|----2-------2---|----0-------0---|----0-------0---|
 -3-------3-------|3-------3-------|2-------2-------|2-------2-------|
 -----------------|----------------|----------------|----------------|
               Forever can never be long enough for me

  Am7             |Gsus            |Fsus2           |                |                     
 -----------------|----------------|----------------|----------------|
 -1---------1-----|1---------1-----|1---------1-----|1---------1-----|
 -------0-------0-|------0-------0-|------0-------0-|------0-------0-|
 -----2-------2---|----0-------0---|----3-------3---|----3-------3---|  
 -0-------0-------|----------------|----------------|----------------|
 -----------------|3-------3-------|1-------1-------|1-------1-------| 
              To feel like I've had long enough with you
 
C                     G(11)/B           G/B
 Forget the world now, we won't let them see
Am7          Gsus          Fsus2 
 But there's one thing left to do                    

C/E                    Fsus2  C/E                   Fsus2    *
 Now that the weight has lifted and love has surely shifted my way                 


Chorus
   C   G(11)/B  G/B    Am7  Gsus    Fsus2   
  Marry me                today and every day
   C   G(11)/B  G/B     Am7          Gsus            Fsus2
  Marry me         if I ever get the nerve to say “hello” in this cafe
          C/E     Fsus2         C/E     Fsus2 *
  Say you will, mm-hmm, say you will, mm-hmm

Verse 2
C                      G(11)/B          G/B
 Together can never be close enough for me
    Am7            Gsus              Fsus2 
 To feel like I am close enough to you                                      
C                     G(11)/B            G/B       Am7    Gsus        Fsus2
 So you wear white and I'll wear out the words “I love you” and you're beautiful
 
C/E                 Fsus2 C/E                 Fsus2        *
 Now that the wait is over and love has finally shown her my way 


Chorus
   C   G(11)/B  G/B    Am7  Gsus    Fsus2   
  Marry me                today and every day
   C   G(11)/B  G/B     Am7          Gsus            Fsus2
  Marry me         if I ever get the nerve to say “hello” in this cafe
          C/E     Fsus2         C/E     Fsus2 *
  Say you will, mm-hmm, say you will, mm-hmm


Bridge

   Bb6(9)          |                |Fsus2/A         |                |            
  -----------------|----------------|----------------|----------------| 
  -1---------1-----|1---------1-----|1---------1-----|1---------1-----|
  -------0-------0-|------0-------0-|------0-------0-|------0-------0-|
  --=--3-------3---|----3-------3---|----3-------3---|----3-------3---|
  -1-------1-------|1-------1-------|0-------0-------|0-------0-------|
  -----------------|----------------|----------------|----------------|  
                    Promise me                 you'll always be 
   C               |                |G(11)/B         |G/B             |
  -----------------|----------------|----------------|----------------| 
  -1---------1-----|1---------1-----|1---------1-----|3---------3-----|
  -------0-------0-|------0-------0-|------0-------0-|------0-------0-|
  -----2-------2---|----2-------2---|----0-------0---|----0-------0---|
  -3-------3-------|3-------3-------|2-------2-------|2-------2-------|
  -----------------|----------------|----------------|----------------| 
                    Happy by my            side    

Bb6(9)      Fsus2/A      C                  G(11)/B  G/B   Bb6(9)   Fsus2/A   *
 I promise to sing to you when all the music dies


Chorus
      C   G(11)/B  G/B    Am7  Gsus    Fsus2   
 And marry me                today and every day
  C   G(11)/B  G/B     Am7          Gsus            Fsus2
 Marry me         if I ever get the nerve to say “hello” in this cafe
         C/E     Fsus2               C/E         Fsus2 
 Say you will, mm-hmm, come on, say you will, mm-hmm
      C/E     Fsus2  *
 Marry me, mm-hmm


            
            
Suggest correction
Creating personal tab
Creating personal tab
You can edit any tab online and save it as your Personal.

You can edit, replace or remove any tab part or add personal notes – all changes will be seen only by you.

Personal tabs can be accessed anytime from any device, even offline.
Learn more »
Give kudos to tab author, rate the tab!
1 2 3 4 5
comments
print report bad tab
guest
You may want to rate the tab now too:
select rating
Wanna post a correction for this tab? Suggest correction