Oops, an error
Loading. Please wait.

Meet Virginia Tab

version 1
version 1

Whole song

Interactive

48,479 views 21 this week
1 commentread comment
1 2 3 4 5
x 5
add to favorites
launch autoscroll
font size
0
reset
how to read this tab
guitar tuner
×
Best way to learn
"Meet Virginia"
Autoscroll
slow
fast
+/-
esc
set tempo
stop
(Rhythm parts are just repeated throughout the song.0
(palm muted)
e|-------------------------------------------|
B|-------------------------------------------|
G|-----0---------0-----0-----2---2-2---2-0-0-|
D|---0---0-0---0-----0-----2---2---0-0-------|
A|-----------3-----2-----0-------------------|
E|-3-----------------------------------------|

(The chorus follows the pattern Em, C, D throughout the song
Sometimes I change this D chord to a regular D chord for the different sound.)

(Lead guitar parts will go in order)
(palm muted)
 Riff1                         Riff2
e|---------------------------3-|------------|
B|---------------------------3-|------------|
G|-4-5-7--4-5-7--4-5-7--4------|-4-5-7--4---|
D|------------------------5----|----------5-|
A|-----------------------------|------------|
E|-----------------------------|------------|

[Chorus]
Well she wants             and she thinks about      pulls her hair           
e|-3----3---3---3--3/7-----7-----7-----7-8-7/10------10------10------10-----10/8 /7-|
B|-3----3---3---3--3/8-----8-----8-----8-8-8/12-12------12------12------12--12/10/8-|
G|-0--0---0---0----0/7---7-----7-----7-------------12------12------12-------------7-|
D|----------------------------------------------------------------------------------|
A|----------------------------------------------------------------------------------|
E|----------------------------------------------------------------------------------|

I dont really

e|-7-7---7---7-|
B|-8-8---8---8-|
G|-7-7---7---7-|
D|-------------|
A|-------------|
E|-------------|

[Riff 3] 
(this riff has 2 different endings)
(palm muted)                end1 end2
e|---------------------------|-3-|---|
B|---------------------------|-3-|---|
G|-4---7---4---7---4---7---4-|---|---|
D|---------------------------|---|-5-|
A|---------------------------|---|---|
E|---------------------------|---|---|

[Riff 3] 
(this riff has 2 different endings)
(palm muted)                end1 end2
e|---------------------------|-3-|---|
B|---------------------------|-3-|---|
G|-4---7---4---7---4---7---4-|---|---|
D|---------------------------|---|-5-|
A|---------------------------|---|---|
E|---------------------------|---|---|

[Solo]
(This is REAL hard to tab out since jimmy picks so fast, so bear with it.
Keep in mind that a LOT of these notes are strummed several times before changing.)
e|--------------------------------------------------------|
B|-8/8/8--8/10/8/10*12--15--15*17-15*17-15*17-15*17-15----|
G|-7/9/7--7/9-/7/9--9---14-----------------------------12-|
D|--------------------------------------------------------|
A|--------------------------------------------------------|
E|--------------------------------------------------------|

e|-15^-15/12/10---------------------------------10/12--10-7--------------|
B|--------------12/10----10-10^---8---8-10^-8---------------10-8---------|
G|--------------------12-------12-7-7-7-------9------------------9-7-----|
D|-------------------------------------------------------------------7-9-|
A|-----------------------------------------------------------------------|
E|-----------------------------------------------------------------------|

e|---------------|
B|-8-10-10^-10-8-|
G|---------------|
D|---------------|
A|---------------|
E|---------------|

[Riff 3] 
(this riff has 2 different endings)
(palm muted)                end1 end2
e|---------------------------|-3-|---|
B|---------------------------|-3-|---|
G|-4---7---4---7---4---7---4-|---|---|
D|---------------------------|---|-5-|
A|---------------------------|---|---|
E|---------------------------|---|---|

[Riff 4]
e|------------------------------------|
B|----------------8---8---8-----------|
G|-4-5-7---4-5-7--7*9-7*9-7-----------|
D|--------------------------9*7-5-7*9-|
A|------------------------------------|
E|------------------------------------|

[Riff 5](play 5x) [Riff 6]
e|-0-0-0-0-0-|--|-----10-|
B|-5-7-8-7-5-|--|-7-8-11-|
G|-----------|--|-----12-|
D|-----------|--|--------|
A|-----------|--|--------|
E|-----------|--|--------|


************************************

| /  Slide up
| *  Natural harmonic

************************************
Suggest correction
comments
print report bad tab
1 comment total.
-1 reply
foojitsu529 89 Jan 12, 2007 05:27 PM

Main riff is right but you've got the chorus all wrong. Should be chords of G-C-Em-D. But otherwise it's good. Solo sounds reasonable also. Nice work.

guest
You may want to rate the tab now too:
select rating
Wanna post a correction for this tab? Suggest correction