Oops, an error
Loading. Please wait.

Meet Virginia tab

version 5
version 5

Whole song

Interactive

by Train
96,995 views 60 this week
6 commentsread comments
1 2 3 4 5
x 19
add to favorites
×
Save as Personal and add changes to this tab that will be seen only by you. Learn more ›
×
You can save this tab as Personal to edit and correct it or add notes. All changes will be seen only by you. Learn more »
launch autoscroll
font size
0
reset
how to read this tab
guitar tuner
edit
Autoscroll
slow
fast
+/-
esc
set tempo
stop
---------------------------------------------------------------------------
		        Meet Virginia - Train
---------------------------------------------------------------------------
Tabbed by:Yellowcard117
Tuning: standard (E a d g b e)

I don't really like any of the other tabs for Meet Virginia 
out there... it took me FOREVER... 
...I MEAN FOREVER!


Listen to the song to get the exact timing of the notes.

Intro (riff 1)
e|------------------------------|----------------------------|
B|------------------------------|----------------------------|
G|-----0-------------0-0-----0--|-----2-------2----2---0---0-|
D|---0-----0---0---2-----2------|---2---2---2----0---0---0---|
A|-----------3---3---------3----|-0-------0------------------|
E|-3-----3----------------------|----------------------------|

Verse 1 - 1st guitar plays riff1 5 more times

Verse 2 - play intro riff 3 times

Chorus
(1st guitar, let ring)
e|-0--0------0-|-----0--------------|
B|-3--3--------|---3----------------|
G|-0--0--------|------------/11-----|
D|-2--2--------|----------------12--|
A|-2--2--------|--------------------|
E|-0--0--------|--------------------|
 |				    |
 |riff 2 - 2nd guitar		    |				
e|-0-----------|-0------0-----------|
B|-3-----------|-1------3-----------|
G|-0-----------|-0------0-----------|
D|-2-----------|-2------4-----------|
A|-2-----------|-3------5-----------|
E|-0-----------|--------------------|

(second guitar cont. playing riff 2)
1st guitar...(let ring)
e|-------------------|------------------|---------------|
B|-12-----12------12-|-----13---12------|-15--15--15----|
G|-12-----12------12-|-----12---12--/16-|---16--16--16--|
D|-----12------12----|--12--------------|---------------|
A|-------------------|------------------|---------------|
E|-------------------|------------------|---------------|

(1st guitar cont.)
e|-------------------|-------------------------|----------|
B|-15----15\13-13\12-|-12-12-12-12----12-12-12-|-12-12-12-|
G|---16--16\14-14\12-|-12-12-12-12----12-12-12-|-12-12-12-|
D|-------------------|-12-12-12-12----12-12-12-|-12-12-12-|
A|-------------------|-------------------------|----------|
E|-------------------|-------------------------|----------|

Verse 3 (1st guitar plays riff1 4 times)

2nd guitar, starting while guitar 1 plays the
	3rd and 4th times thru riff1, plays...
		|(1st guitar rest here)
e|-----|  |---3-|-----|-----|
B|---3-|  |---3-|---3-|-----|
G|-4---|x3|-4---|-5---|-4---|
D|-----|  |-----|-----|---5-|
A|-----|  |-----|-----|-----|
E|-----|  |-----|-----|-----|

Chorus
(1st guitar, let ring)
e|-0--0------0-|-----0--------------|
B|-3--3--------|---3----------------|
G|-0--0--------|------------/11-----|
D|-2--2--------|----------------12--|
A|-2--2--------|--------------------|
E|-0--0--------|--------------------|
 |				    |
 |riff 2 - 2nd guitar		    |
e|-0-----------|-0------0-----------|
B|-3-----------|-1------3-----------|
G|-0-----------|-0------0-----------|
D|-2-----------|-2------4-----------|
A|-2-----------|-3------5-----------|
E|-0-----------|--------------------|

(second guitar cont. playing riff 2)
1st guitar...(let ring)
e|-------------------|------------------|---------------|
B|-12-----12------12-|-----13---12------|-15--15--15----|
G|-12-----12------12-|-----12---12--/16-|---16--16--16--|
D|-----12------12----|--12--------------|---------------|
A|-------------------|------------------|---------------|
E|-------------------|------------------|---------------|

(1st guitar cont.)
e|-------------------|-------------------------|----------|
B|-15----15\13-13\12-|-12-12-12-12----12-12-12-|-12-12-12-|
G|---16--16\14-14\12-|-12-12-12-12----12-12-12-|-12-12-12-|
D|-------------------|-12-12-12-12----12-12-12-|-12-12-12-|
A|-------------------|-------------------------|----------|
E|-------------------|-------------------------|----------|

Guitar Solo

 |1st guitar
e|--------------------------------------------|
B|--------------------------------------------|
G|-12-12-12------12-12-12-12-12-12--12--12/14-|
D|-12-12-12h14---12-12-12-12-12-12--12--12/14-|
A|--------------------------------------------|
E|--------------------------------------------|
 |					      |
 |riff 3 - 2nd guitar (let ring)	      |
e|-0------------------------------------------|
B|-3------------------------------------------|
G|-0------------------------------------------|
D|-2------------------------------------------|
A|-2------------------------------------------|
E|-0------------------------------------------|


 |1st guitar
e|-----------------------------------------------|
B|--------------------------12-12-12-12-12-12-12-|
G|-14\12-12-12---14-14-14---12-12-12-12-12-12-12-|
D|-14\12-12-12---14-14-14------------------------|
A|-----------------------------------------------|
E|-----------------------------------------------|
 |						 |
 |riff 3 (cont.) - 2nd guitar (let ring)	 |
e|-0---------------------------------------------|
B|-1---------------------------------------------|
G|-0---------------------------------------------|
D|-2---------------------------------------------|
A|-3---------------------------------------------|
E|-----------------------------------------------|

(2nd guitar, play riff3 3 times)
1st guitar solo (cont.)
e|----------------------------------12b13-12b13-|
B|-------15----15-15-15-15-15-15-15-15b16-15b16-|
G|-12/14----14-14-14-14-14-14-14-14-------------|
D|----------------------------------------------|
A|----------------------------------------------|
E|----------------------------------------------|

e|-12b13-12b13-12b13---------|-15b16--15--15--12-12b13--0--0--|
B|-15b16-15b16-15b16---------|-------------------15b16--15-15-|
G|--------------------12--12-|--------------------------------|
D|---------------------------|--------------------------------|
A|---------------------------|--------------------------------|
E|---------------------------|--------------------------------|

e|-0---0--0--0------------------------------|
B|-15--12-12-12--12-12-12-------------------|
G|---------------14-14-14-12-12-14b15-12----|
D|---------------------------------------14-|
A|------------------------------------------|
E|------------------------------------------|

e|---------------------------------------|
B|-12--x-12-12-12-12-------------15b16~~~|
G|-12--x-12-12-12-12-14b15-12------------|
D|----------------------------14---------|
A|---------------------------------------|
E|---------------------------------------|
						  |***
e|------------------------------------------------|------|-----|
B|-15b16-12---------------------------------------|------|-12\-|
G|---------14-12------------------12-14b15--14-12-|-(12)-|-12\-|
D|--------------14-14-------12-14-----------------|------|-12\-|
A|--------------------12-14-----------------------|------|-----|
E|------------------------------------------------|------|-----|
***1st guitar riff1 2 times

Verse 4 - 1st guitar riff1 4 times
guitar 2, 3rd and 4th time guitar 1 plays riff1, play...
e|------|
B|----3-|
G|-4----| x3
D|------|
A|------|
E|------|

 |1st guitar
e|-------|---------|-3---3----3~~~--------|------------------|
B|-------|---------|-3h5-3h5--3~~~--------|------------------|
G|-(rest)|(rest)---|---------------4\2-p0-|-2--2/4-----------|
D|-------|---------|----------------------|------------------|
A|-------|---------|----------------------|------------------|
E|-------|---------|----------------------|------------------|
 |							     |
 |2nd guitar						     |
e|-------|---------|----------------------|---------xxxxxxxx-|
B|-----3-|-------3-|----------------------|---------xxxxxxxx-|
G|-5-----|-4--5----|--(rest)--------------|---------xxxxxxxx-|
D|-------|---------|----------------------|---------xxxxxxxx-|
A|-------|---------|----------------------|---------xxxxxxxx-|
E|-------|---------|----------------------|---------xxxxxxxx-|

Chorus
(1st guitar, let ring)
e|-0-----0---0--|-----0---2---------|
B|-3---3---3----|---3---------------|
G|-0------------|-------------------|
D|-2------------|-------------/12---|
A|-2------------|-------------------|
E|-0------------|-------------------|
 |				    |
 |riff 2 - 2nd guitar		    |
e|-0------------|-0------0----------|
B|-3------------|-1------3----------|
G|-0------------|-0------0----------|
D|-2------------|-2------4----------|
A|-2------------|-3------5----------|
E|-0------------|-------------------|

(2nd guitar continue riff2)
1st guitar...
e|--------------------|-----------------|
B|-12-----12-------12-|-----13--12------|
G|-12-----12-------12-|-----12--12--12\-|
D|-----12-------12----|--12-------------|
A|--------------------|-----------------|
E|--------------------|-----------------|

(1st guitar, let ring)
e|-0--0------0-|-----0--------------|
B|-3--3--------|---3----------------|
G|-0--0--------|------------/11-----|
D|-2--2--------|----------------12--|
A|-2--2--------|--------------------|
E|-0--0--------|--------------------|

(second guitar cont. playing riff 2)
(1st guitar, let ring)
e|-------------------|------------------|---------------|
B|-12-----12------12-|-----13---12------|-15--15--15----|
G|-12-----12------12-|-----12---12--/16-|---16--16--16--|
D|-----12------12----|--12--------------|---------------|
A|-------------------|------------------|---------------|
E|-------------------|------------------|---------------|

(1st guitar cont.)
e|-------------------|-------------------------|
B|-15----15\13-13\12-|-12-12-12-12----12-12-12-|
G|---16--16\14-14\12-|-12-12-12-12----12-12-12-|
D|-------------------|-12-12-12-12----12-12-12-|
A|-------------------|-------------------------|
E|-------------------|-------------------------|

e|----------------|
B|-12-12--12--12\-|
G|-12-12--12--12\-|
D|-12-12--12--12\-|
A|----------------|
E|----------------|

Outro
guitar 1 (let ring)          
e|-0-------|-0----------0----|
B|-3-------|-1----------3----|
G|-0-------|-0----------0----|
D|-2-------|-2----------4----|
A|-2-------|-3----------5----|
E|-0-------|-----------------|
 |			     |==> times
 |guitar 2 (let ring)	     |==> three
e|-0-------|-----------------|
B|-3-------|-----------------|
G|-0-------|--(still ringing)|
D|-2-------|-----------------|
A|-2-------|-----------------|
E|-0-------|-----------------|

(fade out at the end)

| /  slide up
| \  slide down
| h  hammer-on
| p  pull-off
| ~  vibrato
| +  harmonic
| x  Mute note
==========================================================================

            
            
Suggest correction
Creating personal tab
Creating personal tab
You can edit any tab online and save it as your Personal.

You can edit, replace or remove any tab part or add personal notes – all changes will be seen only by you.

Personal tabs can be accessed anytime from any device, even offline.
Learn more »
comments
print report bad tab
6 comments total. Showing first comments.
0 reply
Matt11233 10 Mar 21, 2007 10:35 AM

i can't belive this hasn't been rated yet! good job with the song, GREAT job with the solo -- finally a version with a good solo!

+1 reply
Trey3 93 May 01, 2007 06:05 PM

great tab man the only thing is that i think the intro should be palm muted but thats nothin that big and i agree with matt up there this needs to be rated

0 reply
ninja_cupcakes4 176 Jan 21, 2010 06:24 PM

yea i agree with both of them, this tab to me is like the best train tab i hav seen on here! rock on!!B)

guest
You may want to rate the tab now too:
select rating
Wanna post a correction for this tab? Suggest correction