Oops, an error
Loading. Please wait.

Bunker Chords

14 views 1 this week
no commentswrite comment
1 2 3 4 5
3 more votes to show rating
add to favorites
launch autoscroll
font size
0
reset
transpose
0
reset
display chords
guitar tuner
×
Best way to learn
"Bunker"
Autoscroll
slow
fast
+/-
esc
set tempo
stop
BUNKER

ALBUN: Romper
AÑO: 2004
TRANSCRICION:Sebastian Valorzi
seba_colon_12@

INTRO:
    C                              F
E  --------------------------------1-1-3-3-5-5-3-3-1-1-3-3-5-5-3-3 (X4)
B  -1-1-3-3-5-5-3-3-1-1-3-3-5-5-3-3-------------------------------
G ---------------------------------------------------------------

     C        F        C         F
E  --0--3-3-1-0-------------3-3-1-0----3-1-0-------------||
B  -1----------1----1--3-1----------1-------3-1-1--(bis)-||
SOL --------------0-2---------------------------0---------||


C
Estoy en un bunker
             F
y no puedo salir
C
afuera todo es desierto
F
muerte

Ya los gases toxicos
llegaron a mi
y esas bombas no paran,
no paran de destruir

Son los hombres de verde
escoltando al fin
es la autoridad
demostrando su poder

                     _
C        F     G  |
PERO SIGO ENSERRADO   |
                      |
EN UN BUNKER          |ESTRIBILLO
C        F     G  |
PERO SIGO ENSERRADO   |
            C        |
EN UN BUNKER [X2]    _|


INTER:

fig. 1
     C     F
E  --0-----1-0-----0-1-3-5-3-------
B  -1--(X3)---3-1-3----------(BIS)-
G --------------------------------


fig. 2
     C                           F
E  -8--8-8-8-12-10-8--8-8-8-12-10------------8-10-7-
B  -------------------------------10-----8-10-------
SOL ----------------------------------8/9------------


fig. 3
     C                            F
E  -8--8-8-8-12-10-8--8-8-8-12-10--------------||
B  -------------------------------10--10-8-5-1-||
SOL --------------------------------------------||

Autos sin patente
que se llevan a los chicos
pequeñas figuras
como de carton

Los policias siempre
fueron peligrosos
es la autoridad
demostrando su poder

ESTRIBILLO

Son los hombres de azul
que han venido por vos
Son los hombres de azul
que han venido por mi

Son los hombres de verde
que han venido por vos
Son los hombres de verde
que han venido por mi

Y no me puedo escapar

-----------------------------------------------------------
LOCOOOOO AGUANTE TRAMONTINAS, SANTE FE Y EL PUNK!!!
seba_colon_12@
Suggest correction
Give kudos to tab author, rate the tab!
1 2 3 4 5
comments
print report bad tab
guest
You may want to rate the tab now too:
select rating
Wanna post a correction for this tab? Suggest correction