Oops, an error
Loading. Please wait.

Blue Sky And The Devil Tab

6,090 views 24 this week
no commentswrite comment
1 2 3 4 5
excellent!
x 4
add to favorites
launch autoscroll
font size
0
reset
how to read this tab
guitar tuner
Tab Pro tools
  • play this tab
  • loop segment
  • change instrument
  • show fretboard
  • metronome
Autoscroll
slow
fast
+/-
esc
set tempo
stop
Contributor
Trampled By Turtles
Blue Sky and The Devil

intro:
D  Bm  G  D  A

this is my interpretation what the fiddle plays in the intro:
|---------------------------5-7---7-7--77-5--55-5----------|
|-7--5--3--5-3-3-5-3-5/7-7-------------------------7-7-5---|
|----------------------------------------------------------|
|----------------------------------------------------------|
|----------------------------------------------------------|
|----------------------------------------------------------|

its not exact but i like it and it sounds good

D
I'm leaving Virginia
Bm
Back to where I belong
G
I can't remember
         D      A
The last time I gone

 
D
There's blue skies and women
Bm
And liquor so strong
G
Angels and Devils
   D        A
To carry me on

 
D              Bm
So come closer Angeline
G               
We'll go in the mornin'
      D       A
We'll be home tonight

bridge:
D Bm G D A
this is what the mandoline plays
|------5-5-7-5-----5--/10-7--5/7-10-10-7-5-10-10-7-5-5-5--------10-7/13--|
|--5/7---------5/7---------------------------------------7-7-5-----------|
|------------------------------------------------------------------------|
|------------------------------------------------------------------------|
|------------------------------------------------------------------------|
| -----------------------------------------------------------------------|

D
Old worn out feelings
Bm
And yesterday's news
G
Just give me something
     D     A
That I can use

 
D
My boots are forgiven
Bm
The valley's a lie
G
And all these words talking
     D       A
Mean nothing tonight

 
                        
D              Bm               |--------|
So come closer Angeline         |-15--12-|
G                               |--------|  these are the two little
We'll go in the mornin'         |--------|  plinks the mandoline makes
      D       A                 |--------|
We'll be home tonight           |--------|

D Bm G D A

(this is the fiddle solo but itll take too long to tab. might tab it if I get time....)

D
I left my pillar
Bm
Out on the road
G
It's a desolate place
           D          A
But you've been there before

 
D
There's a town by the river
Bm
It's where I was born
G
And I died on a hillside
    D            A
All tattered and torn


D              Bm
So come closer Angeline
G               
We'll go in the mornin'
      D       A
We'll be home tonight
D              Bm
So come closer Angeline
G               
We'll go in the mornin'
      D       A
We'll be home tonight
comments
print report bad tab
I want to post or [tab]
guest
You may want to rate the tab now too:
select rating
Please do not post tabs as comments. Select "correction" instead!