Oops, an error
Loading. Please wait.

Disco Inferno bass

version 1
version 1

Whole song

Interactive

by Tramps
42,771 views 30 this week
1 commentread comment
1 2 3 4 5
1 last vote to show rating
add to favorites
×
Save as Personal and add changes to this tab that will be seen only by you. Learn more ›
×
You can save this tab as Personal to edit and correct it or add notes. All changes will be seen only by you. Learn more »
launch autoscroll
font size
0
reset
guitar tuner
edit
Autoscroll
slow
fast
+/-
esc
set tempo
stop
Author
Unregistered
song:disco inferno
artist:The Trammps
album:some disco album

[Intro]
G|-77-66-44-11----------|
D|-------------33-11----|
A|-------------------44-|
E|----------------------|

[riffs] (changes made to this tab)
G|-----------------------------------------------------------|
D|--------5-----3-------5------3-------5-----3---------------|
A|-1-3--3---3-6----3--3---3-66----3--3---3-6----1-3--3-00-11-|
E|-----------------------------------------------------------|

G|----------------|    |---------2-3--|
D|--------5-----3-|    |--------------|
A|-1-3--3---3-6---| x3 |-1-3--3-0-1---|
E|----------------|    |--------------|
repeat above riffs as many times as needed

[Chorus]
G|-------------------------------------------|
D|---3--2--0---------------------------------|
A|-3---------3-11-0----0-5-3-33-33-3--33-33--|
E|------------------3------------------------|

G|---------------------------------------------------|
D|---3--2--0-------------------------------------1-3-|
A|-3---------3-11-0----0-5-3-3---------1-3-1-0-3-----|
E|------------------3----------0-1-2-3---------------|

            
            
Suggest correction
Creating personal tab
Creating personal tab
You can edit any tab online and save it as your Personal.

You can edit, replace or remove any tab part or add personal notes – all changes will be seen only by you.

Personal tabs can be accessed anytime from any device, even offline.
Learn more »
Give kudos to tab author, rate the tab!
1 2 3 4 5
comments
print report bad tab
1 comment total.
0 reply
Chris_Parker 277 May 13, 2006 01:01 PM

i think the intro goes like this:
|-7-7-6-6-4-4-----1-1-----------|
|-------------3-3-----1-1-------|
|-------------------------4-4-4-|
|-------------------------------|
i think you nailed the verse though, nice work.

guest
Wanna post a correction for this tab? Suggest correction