Oops, an error
Loading. Please wait.

Disco Inferno bass

version 3
version 3

Whole song

Interactive

by Tramps
37,329 views 195 this week
no commentswrite comment
1 2 3 4 5
x 13
add to favorites
×
Save as Personal and add changes to this tab that will be seen only by you. Learn more ›
×
You can save this tab as Personal to edit and correct it or add notes. All changes will be seen only by you. Learn more »
launch autoscroll
font size
0
reset
guitar tuner
edit
Autoscroll
slow
fast
+/-
esc
set tempo
stop
Author
Artist: The Tramps
Song: Disco Inferno

Tabbed by: Alex Kehoe
www.alexkehoe.co.uk


[Intro]

G|88-66-44---------------------|
D|------------66-33------------|
A|--------------------66-44----|
E|--------------------------6--|


[Verse]

G|--------------------------------------|
D|------5------3-------------5--------3-|
A|-3--3--3--6-------3-----3----3---66---|
E|----------------6---------------------|

G|--------------------------------------|
D|-----5--------3----------5----2---3---|
A|3--3---3--6----------3------0----1---2|
E|-----------------6--------------------|


[Chorus]

G|----------------------------------------------------------------|
D|--3--3-2-0-0----------------------------------------------------|
A|3------------3--1--1-0----0---1---3------3-----3---------------3|
E|------------------------3------------0--0---1-3-----33---3---5--|

G|--------------------------------------------------------|
D|-3--3-2-0-0---------------------------------------------|
A|------------3-1---1--0----0---1--3-33--3-3---3--3-3--1-0|
E|------------------------3-------------------------------|


REPEAT VERSE x4
REPEAT CHORUS
REPEAT VERSE x4
REPEAT CHORUS


[Middle 8]

G|---------------------------------------------5-333-3222-00|
D|-------0--3---------00--3---------3-5---------------------|
A|1-11--1-----x1-11----------3--33-3------3---3-------------|
E|----------------------------------------------------------|

G|------------------------------------0-0-----------------0-0-------------------|
D|-----0-------------------3--------------3-1-1--1-1--1-0-----3---1-1--1-1--1--0|
A|1------3-1-3-1---1---3-----5-3-1-3--------------------------------------------|
E|------------------------------------------------------------------------------|


REPEAT VERSE x4
REPEAT CHORUS x2
REPEAT VERSE UNTIL END  

************************************

| x  Dead note

************************************

            
            
Suggest correction
Creating personal tab
Creating personal tab
You can edit any tab online and save it as your Personal.

You can edit, replace or remove any tab part or add personal notes – all changes will be seen only by you.

Personal tabs can be accessed anytime from any device, even offline.
Learn more »
comments
print report bad tab
guest
You may want to rate the tab now too:
select rating
Wanna post a correction for this tab? Suggest correction