Oops, an error
Loading. Please wait.

Carol Of The Bells tab

version 3
version 3

Whole song

Interactive

17,100 views 1 this week
1 commentread comment
1 2 3 4 5
x 5
add to favorites
×
Save as Personal and add changes to this tab that will be seen only by you. Learn more ›
×
You can save this tab as Personal to edit and correct it or add notes. All changes will be seen only by you. Learn more »
launch autoscroll
font size
0
reset
how to read this tab
guitar tuner
backing track
0:00
0:00
edit
Autoscroll
slow
fast
+/-
esc
set tempo
stop
Author
=======================================================================
Song: Carol of the Bells
Band: Trans-Siberian Orchestra
Tuning: Standard (EADGBe)
Tabbed by: Jake Something (sloppyjoe24)

Guitar I: Clean
Guitar II: Slight Distortion
Guitar III: Distortion


h = hammer on                   
p = pull off                    
^ = bend                               
r = release
~ = let it ring                         
/ = slide up                             
\ = slide down                            
. = palm mute                              
+ = harmonic                                
v = vibrato


If you don't have a guitar with 24 frets, then you're SOL.

=======================================================================

Guitar I

(Hard to hear later in the song, but it's there)

  0:01-0:30        0:30-0:34
e|------------|   |--------|
B|------8-7---|   |--------|
G|----9-------|   |--------|
D|--9---------|x19|--9~~~--|
A|------------|   |--------|
E|------------|   |--------|

  0:34-2:57
e|--------------|
B|--------------|
G|--9--9-9------|
D|---------9-9--|xLots of times
A|--------------|
E|--------------|

  2:57-3:04          3:04-3:12
e|---------------|  |--------------------------|
B|---------------|  |--------------------------|
G|--9--9-9-9-9---|  |---9---9---9---9---9~~~~--|
D|---------------|x8|--------------------------|
A|---------------|  |--------------------------|
E|---------------|  |--------------------------|

 (3:12-3:18)
e|--------------|
B|--------------|
G|--9--9-9------|
D|---------9-9--| Fade to End 
A|--------------|
E|--------------|

=======================================================================

Guitar II

   0:34    0:45    0:53
e|-------|-------|-------|
B|-------|-------|-------|
G|-------|-------|-------|
D|---2---|---2---|---2---|
A|---2---|---2---|---2---|
E|---0---|---0---|---0---|

  1:01-1:04
e|----------------|
B|--12-10h12--\8--|
G|----------------|
D|----------------|x4
A|----------------|
E|----------------|

  1:05-1:08
e|--12--12-12-10--------------------------------------------------|
B|---------------13--12--12-12--10----10--10-10--12--10-----------|
G|---------------------------------12-------------------9--9-9-9--|
D|----------------------------------------------------------------|
A|----------------------------------------------------------------|
E|----------------------------------------------------------------|

  1:09-1:12
e|--------------------------------|
B|-------------7--8-10^(12)-10--8-|
G|-------8--9---------------------|
D|--9-11--------------------------|x2
A|--------------------------------|
E|--------------------------------|

  1:12-1:16                1:17    
e|------------------|  |----------|
B|-------------7--8-|  |----------|
G|-------8--9-------|  |---9vvv---|
D|--9-11------------|x4|----------|
A|------------------|  |----------|
E|------------------|  |----------|

1:17-2:14 Tacet

  2:14-2:22
e|------------|
B|--8-7h8-\5--|
G|------------|
D|------------|x8
A|------------|
E|------------|

  2:22-2:25
e|--12--12-12-10--------------------------------------------------|
B|---------------13--12--12-12--10----10--10-10--12--10-----------|
G|---------------------------------12-------------------9--9-9-9--|
D|----------------------------------------------------------------|
A|----------------------------------------------------------------|
E|----------------------------------------------------------------|

  2:26-2:29
e|--------------------------------|
B|------------------10h12-10------|
G|----------9-11/12-----------12--|
D|--9-11-12-----------------------|x2
A|--------------------------------|
E|--------------------------------|

     2:31
e|------------|
B|--8-7h8-\5--|
G|------------|
D|------------|
A|------------|
E|------------|

  2:33-2:37
e|------------|
B|--8-7h8-\5--|
G|------------|
D|------------|x5
A|------------|
E|------------|

  2:37-2:41
e|--12--12-12-10--------------------------------------------------|
B|---------------13--12--12-12--10----10--10-10--12--10-----------|
G|---------------------------------12-------------------9--9-9-9--|
D|----------------------------------------------------------------|
A|----------------------------------------------------------------|
E|----------------------------------------------------------------|

  2:41-2:45
e|--------------------------------|
B|------------7--8--10^(12)-10--8-|
G|-------8--9---------------------|
D|--9-11--------------------------|x2
A|--------------------------------|
E|--------------------------------|

  2:45-2:49             2:49-2:53       2:53-2:56
e|------------------|  |------------|  |---------------|
B|------------7--8--|  |--8-7h8-\5--|  |--12-10h12-\8--|
G|-------8--9-------|  |------------|  |---------------|
D|--9-11------------|x4|------------|x4|---------------|x4
A|------------------|  |------------|  |---------------|
E|------------------|  |------------|  |---------------|

  2:57-3:04          3:04-3:12
e|---------------|  |----------------------------|
B|---------------|  |----------------------------|
G|--9--9-9-9-9---|  |---9---9---9---9---9~~~~--9-|
D|---------------|x8|---9---9---9---9---9~~~~--9-|
A|---------------|  |---7---7---7---7---7~~~~--7-|
E|---------------|  |----------------------------|

=======================================================================

Guitar III:

  0:57-1:04
e|------------|
B|--8-7h8-\5v-|
G|------------|
D|------------|x8
A|------------|
E|------------|

  1:16-1:17
e|-----------17-19--22-24vvv--|
B|--17-19-20------------------|
G|----------------------------|
D|----------------------------|
A|----------------------------|
E|----------------------------|

  1:20-1:24                        1:28-1:32
e|--------------------------------|-----------------------------------|
B|--------------------------------|-----------------------------------|
G|--9-9-7-------------------------|--9-9-7----------------------------|
D|--------10-10-9-7-9-7-----------|--------10-10-9-7-9-7--------------|
A|----------------------10-10-9-7-|----------------------10-10-9-7-7~-|
E|--------------------------------|-----------------------------------|

1:32-2:10 Tacet

  2:10-2:22
e|--------------------------------|
B|---15^--15vvv-12^(half)-12vvv---|
G|--------------------------------|
D|--------------------------------|x3
A|--------------------------------|
E|--------------------------------|

 2:28-2:29
e|---------------------17h19-17-15--|
B|------------17-19-20--------------|
G|---16-18-19-----------------------|
D|----------------------------------|
A|----------------------------------|
E|----------------------------------|

        2:31       2:32-2:37
e|--15-14h15-\12--|---17^r-12vvv-16vvv-22vvv-24vvv---|
B|----------------|----------------------------------|
G|----------------|----------------------------------|
D|----------------|----------------------------------|
A|----------------|----------------------------------|
E|----------------|----------------------------------|

        2:41
e|-------------------|
B|-------------------|
G|-------------------|
D|-------------------|
A|-------------------|
E|--h19\\\\\\\\\\\7--|

  2:48-2:49             2:49-2:56
e|-----------17-19-22--|-24vvv-|
B|--17-19-20-----------|-------|
G|---------------------|-------|
D|---------------------|----x8-|
A|---------------------|-------|
E|---------------------|-------|

  2:57-3:04
e|-----------------------------|
B|----------(pickslide)--------|
G|-X16\\\\\\\\\\\4////////////-|
D|-----------------------------|x4
A|-----------------------------|
E|-----------------------------|

 3:04-3:12
e|-------------------------------------24vvv--|
B|---------------17vvv-20vvv-24~~~~~~~--------|
G|---16vvv-19vvv------------------------------|
D|--------------------------------------------|
A|--------------------------------------------|
E|--------------------------------------------|

=======================================================================
Suggest correction
Creating personal tab
Creating personal tab
You can edit any tab online and save it as your Personal.

You can edit, replace or remove any tab part or add personal notes – all changes will be seen only by you.

Personal tabs can be accessed anytime from any device, even offline.
Learn more »
comments
print report bad tab
1 comment total.
0 reply
JestyrGod 31 Dec 04, 2010 11:53 AM

Ok this is perfect, but there are several places where there are easier ways to play it, such as during 1:12 to 1:16 on guitar 2, it is easier to play on the d string 9 11 12 then on the G string 9 11 12 again, same exact notes, easier to play and feels much more fluid. I could point out a few more if you are willing to listen, message me, JestyrGod on here.

guest
You may want to rate the tab now too:
select rating
Wanna post a correction for this tab? Suggest correction