Oops, an error
Loading. Please wait.

Carol Of The Bells Tab

version 9
version 9

Whole song

Interactive

88 views 24 this week
no commentswrite comment
1 2 3 4 5
2 more votes to show rating
add to favorites
launch autoscroll
font size
0
reset
how to read this tab
guitar tuner
Autoscroll
slow
fast
+/-
esc
set tempo
stop
Help us to improve Ultimate-Guitar.com Take our survey!
×
Author
Difficulty
intermediate
About this tab version
Some parts are corrected and easier to play. Was this info helpful? Yes No
Title: Carol of the bells
Artist: Trans-Siberian Orchestra
Updated by Andreas Winter (@WolvDev)
Original by offthawall91


[Intro]
0:00 (repeat 10x)
e|-----------------------------|
B|--------8--7-------8--7------|
G|-----9----------9------------| x10
D|---9----------9--------------|
A|-----------------------------|
E|-----------------------------|

[Violin]
0:06
e|--------------------------------------|
B|--------------------------------------|
G|--------------------------------------|
D|--------9-9-7-----------------7-9-----|
A|---7-7--------10-9-7-5-7-9-10---------|
E|--------------------------------------|

e|---------------------------------|
B|---------------------------------|
G|---------------------------------|
D|-------9-9-7---------------------|
A|---7-7-------10-9-7-5-7----------|
E|---------------------------------|

0:32
e|--------------------------|
B|--------------------------|
G|--------------------------|
D|--2-----------------------|
A|--2-----------------------|
E|--0-----------------------|

[Riff 1]
0:55
e|--3-2-3-0---3-2-3-0---3-2-3-0---3-2-3-0---|
B|------------------------------------------|
G|------------------------------------------|
D|------------------------------------------|
A|------------------------------------------|
E|------------------------------------------|

[Riff 1 Harmony (after riff 1)]
0:59
e|--7-5-7-3---7-5-7-3---7-5-7-3---7-5-7-3---|
B|------------------------------------------|
G|------------------------------------------|
D|------------------------------------------|
A|------------------------------------------|
E|------------------------------------------|

[Descent]
1:03
e|--12--12-12-10-----------------------------7------------|
B|---------------13-12--12-12-10-8-10--10-10---8--5--5-5--|
G|--------------------------------------------------------|
D|--------------------------------------------------------|
A|--------------------------------------------------------|
E|--------------------------------------------------------|

[Ascent]
1:07
e|--------------------------------------------------------------|
B|------------------10-12-10-----------------------10-12-10-----|
G|----------9-11-12-----------12-----------9-11-12-----------12-|
D|--9-11-13------------------------9-11-13----------------------|
A|--------------------------------------------------------------|
E|--------------------------------------------------------------|

e|---------------------------------------------------------|
B|---------------------------------------------------------|
G|----------9-11-12------------9-11-12-----------9-11-12---|
D|--9-11-13-----------9-11-13-----------9-11-13------------|
A|---------------------------------------------------------|
E|---------------------------------------------------------|

e|---------------------------9-10-11-12---|
B|------------------10-12-13--------------|
G|----------9-11-12-----------------------|
D|--9-11-13-------------------------------|
A|----------------------------------------|
E|----------------------------------------|

[Next riff]
Piano starts at 1:15
1:18
e|------------------------------------------------|
B|------------------------------------------------|
G|--9-9-7-----------------------------------------|
D|--------10-10-9-7-9-7---------------------------|
A|----------------------10-10-9-7-7---------------|
E|------------------------------------------------|

[Higher riff]
Piano starts at 1:22
1:26
e|--12-12-10--------------------------------------|
B|-----------13-13-12-10-12-10--------------------|
G|-----------------------------12-12-11-9-9-------|
D|------------------------------------------------|
A|------------------------------------------------|
E|------------------------------------------------|

Background guitar
P.M slightly
e|------------------------------|
B|--5----5----------------------|
G|----4----4--4-----------------|
D|------------------------------|
A|------------------------------|
E|------------------------------|


e|----------------------------------|
B|----------------------------------|
G|--9--7--5--4----------------------|
D|--9--7--5--4----------------------|
A|--7--5--3--2----------------------|
E|----------------------------------|

[Haunting lead]
2:09 (repeat 3x)
e|--12~--10~--8^-7-----------|
B|---------------------------|
G|---------------------------| x3
D|---------------------------|
A|---------------------------|
E|---------------------------|

[Descent]
2:20
e|--12--12-12-10-----------------------------7------------|
B|---------------13-12--12-12-10-8-10--10-10---8--5--5-5--|
G|--------------------------------------------------------|
D|--------------------------------------------------------|
A|--------------------------------------------------------|
E|--------------------------------------------------------|

[Ascent]
2:24
e|--------------------------------------------------------------|
B|------------------10-12-10-----------------------10-12-10-----|
G|----------9-11-12-----------12-----------9-11-12-----------12-|
D|--9-11-13------------------------9-11-13----------------------|
A|--------------------------------------------------------------|
E|--------------------------------------------------------------|

[Riff 1]
2:28
e|--3-2-3-0---3-2-3-0---3-2-3-0---3-2-3-0---|
B|------------------------------------------|
G|------------------------------------------|
D|------------------------------------------|
A|------------------------------------------|
E|------------------------------------------|


[Riff 1 Harmony (after riff 1)]
0:59
e|--7-5-7-3---7-5-7-3---7-5-7-3---7-5-7-3---|
B|------------------------------------------|
G|------------------------------------------|
D|------------------------------------------|
A|------------------------------------------|
E|------------------------------------------|

[Descent]
2:36
e|--12--12-12-10-----------------------------7------------|
B|---------------13-12--12-12-10-8-10--10-10---8--5--5-5--|
G|--------------------------------------------------------|
D|--------------------------------------------------------|
A|--------------------------------------------------------|
E|--------------------------------------------------------|

[Ascent]
2:40
e|--------------------------------------------------------------|
B|------------------10-12-10-----------------------10-12-10-----|
G|----------9-11-12-----------12-----------9-11-12-----------12-|
D|--9-11-13------------------------9-11-13----------------------|
A|--------------------------------------------------------------|
E|--------------------------------------------------------------|

e|---------------------------------------------------------|
B|---------------------------------------------------------|
G|----------9-11-12------------9-11-12-----------9-11-12---|
D|--9-11-13-----------9-11-13-----------9-11-13------------|
A|---------------------------------------------------------|
E|---------------------------------------------------------|

e|---------------------------9-10-11-12---|
B|------------------10-12-13--------------|
G|----------9-11-12-----------------------|
D|--9-11-13-------------------------------|
A|----------------------------------------|
E|----------------------------------------|


Then they go nuts with e--12-- and a tremolo arm for a bit

2:55
[Slide]
e|----------------|
B|----------------|
G|--4/16---16/4---|
D|----------------|
A|----------------|
E|----------------|

OR

e|--19--17--15------------------------------------------------------15--17--19--|
B|--------------19--17--15------------------------------15--17--19--------------|
G|--------------------------17--16--14------14--16--17--------------------------|
D|--------------------------------------17--------------------------------------|
A|------------------------------------------------------------------------------|
E|------------------------------------------------------------------------------|

OR

e|--15--14--12------------------------------------------------------12--14--15--|
B|--------------15--13--12------------------------------12--13--15--------------|
G|--------------------------14--12--11------11--12--14--------------------------|
D|--------------------------------------14--------------------------------------|
A|------------------------------------------------------------------------------|
E|------------------------------------------------------------------------------|

[Last part]
3:03
e|--------------10--12----------|
B|------10--12------------------|
G|--12--------------------------|
D|------------------------------|
A|------------------------------|
E|------------------------------|

Background guitar
P.M slightly
3:10 - 3:21
e|------------------------------|
B|--5----5----------------------|
G|----4----4--4-----------------|
D|------------------------------|
A|------------------------------|
E|------------------------------|



***********************************
| /   Slide up
| \   Slide down
***********************************
Suggest correction
Give kudos to tab author, rate the tab!
1 2 3 4 5
comments
print report bad tab
guest
You may want to rate the tab now too:
select rating
Wanna post a correction for this tab? Suggest correction