Oops, an error
Loading. Please wait.

Christmas Canon tab

11,822 views 6 this week
1 commentread comment
1 2 3 4 5
x 6
add to favorites
×
Save as Personal and add changes to this tab that will be seen only by you. Learn more ›
×
You can save this tab as Personal to edit and correct it or add notes. All changes will be seen only by you. Learn more »
launch autoscroll
font size
0
reset
how to read this tab
guitar tuner
edit
Autoscroll
slow
fast
+/-
esc
set tempo
stop
Riff #1

Guitar 1

E -------2-5-----2-5-|
B ---3-3-----3-3-----|
G -------------------|
D -------------------|
A -------------------|
E -------------------|

Guitar 2

E 12-10----------------12-10-----------|
B ------10-------------------10--------|
G ----------12-11----------------12-11-|
D -------------------------------------|
A -------------------------------------|
E -------------------------------------|


Riff #2

Guitar 1

  D
 This night
  A
 We pray
  Bmin
 Our lives
  F#min
 Will show
  G
 This dream
   D
 He had
  G
 Each child
   A
 Still knows

 Guitar 2

E -5-2-3-5-2-3-5----------1-2--2-----2-----2---------------------|
B -------------------1-2-5-------3-5---3-5---------1-2-5---2-1-2-|
G ---------------2-4---------------------------2-4-------4-------|
D -------------------------------------------4-------------------|
A ---------------------------------------------------------------|
E ---------------------------------------------------------------|


E -------------------------------------------1-2-5--------------|
B -1--------------1-2---2-1-2--1-------1-2-5--------------------|
G ---4-2-0--0-2-4-----4----------4-2-4--------------------------|
D ---------4----------------------------------------------------|
A --------------------------------------------------------------|
E --------------------------------------------------------------|


Ya so thats about it... enjoy
Suggest correction
Creating personal tab
Creating personal tab
You can edit any tab online and save it as your Personal.

You can edit, replace or remove any tab part or add personal notes – all changes will be seen only by you.

Personal tabs can be accessed anytime from any device, even offline.
Learn more »
comments
print report bad tab
1 comment total.
0 reply
aarontill88 10 Jan 03, 2015 05:11 PM

Chords are right as with opening theme, cleaned up the melody and added bass notes

E -5-2-3-5-2-3-5---------2-3---2-----2-----2---------------------|
B ------------------2-3-5--------3-5---3-5---------2-3-5---------|
G ----------------4----------------------------2-4---------------|
D -0-----------------------------------------4-------------------|
A -------------0---------------2---------------------------------|
E -----------------------------------------2---------------------|

E ------------------------------------------------------2-3-5----|
B 0-3-2-3--2---------------1-2---0-3-2-3--2-------2-3-5----------|
G -----------4-2-0---0-2-4------------------4-2-4----------------|
D -------------0---4---------------------------------------------|
A --------------------------------------------0------------------|
E 3------------------------------3-------------------------------|

guest
Wanna post a correction for this tab? Suggest correction