Oops, an error
Loading. Please wait.

Christmas Canon bass

version 2
version 2

Whole song

163 views 1 this week
no commentswrite comment
1 2 3 4 5
3 more votes to show rating
add to favorites
×
Save as Personal and add changes to this tab that will be seen only by you. Learn more ›
×
You can save this tab as Personal to edit and correct it or add notes. All changes will be seen only by you. Learn more »
launch autoscroll
font size
0
reset
guitar tuner
edit
Autoscroll
slow
fast
+/-
esc
set tempo
stop
Author
Difficulty
-------------------------------------------------------------------------------
                  Christmas Canon - Trans-Siberian Orchestra
------------------------------------------------------------------------------- 
Tabbed by: RagnaarMN 
E-mail: 

Tuning: Standard
Key of D Major


G|----------------|----------------|----------------|----------------|
D|0---------------|------------2---|----------------|----------------|
A|------------0---|0---------------|2---------------|----------------|
E|----------------|----------------|------------2---|2-----------0---|

G|----------------|----------------|----------------|----------------|
D|------------0---|0---------------|------------0---|----------------|
A|----------------|------------0---|----------------|0---------------|
E|3---------------|----------------|3---------------|--------2---0---|

A variation of Johann Pachelbel's Canon in D. TSO also did Christmas Canon 
Rock which has a structure similar to the above, but is in the A Major key. 
Most piano players can easily accompany you with a keynote(lh) plus a 
keynote triplet(rh) repeating every 8 measures. 

            
            
Suggest correction
Creating personal tab
Creating personal tab
You can edit any tab online and save it as your Personal.

You can edit, replace or remove any tab part or add personal notes – all changes will be seen only by you.

Personal tabs can be accessed anytime from any device, even offline.
Learn more »
Give kudos to tab author, rate the tab!
1 2 3 4 5
comments
print report bad tab
guest
You may want to rate the tab now too:
select rating
Wanna post a correction for this tab? Suggest correction