Oops, an error
Loading. Please wait.

Christmas Eve Sarajevo tab

version 4
version 4

Whole song

34 views 1 this week
no commentswrite comment
1 2 3 4 5
2 more votes to show rating
add to favorites
×
Save as Personal and add changes to this tab that will be seen only by you. Learn more ›
×
You can save this tab as Personal to edit and correct it or add notes. All changes will be seen only by you. Learn more »
launch autoscroll
font size
0
reset
how to read this tab
guitar tuner
edit
Autoscroll
slow
fast
+/-
esc
set tempo
stop
Author
Riff 1
 e|----------------------------------------------------------------------------|
 B|-------8-7------------------------------------------------------------------|
 G|-----9----------------------------------------------------------------------|
 D|---9---------9--------------------------------------------------------------|
 A|----------------------------------------------------------------------------|
 E|----------------------------------------------------------------------------|x8

 e|----------------------------------------------------------------------------|
 B|----------------------------------------------------------------------------|
 G|----------------------------------------------------------------------------|
 D|----------------------------------------------------------------------------|
 A|---2------------------------------------------------------------------------|
 E|---0------------------------------------------------------------------------|Chug: 00-000 x8

Riff 2
 e|----------------------------------------------------------------------------|
 B|----------------------------------------------------------------------------|
 G|---9-9---9------------------------------------------------------------------|
 D|-------9---9-9--------------------------------------------------------------|
 A|----------------------------------------------------------------------------|
 E|----------------------------------------------------------------------------|Palm mute (Fast) x10

Riff 3
 e|----------------------------------------------------------------------------|
 B|----------------------------------------------------------------------------|
 G|--12-11-12------------------------------------------------------------------|
 D|----------14----------------------------------------------------------------|
 A|----------------------------------------------------------------------------|
 E|----------------------------------------------------------------------------|x4

Riff 4
 e|----------------------------------------------------------------------------|
 B|--12-10-12------------------------------------------------------------------|
 G|----------12----------------------------------------------------------------|
 D|----------------------------------------------------------------------------|
 A|----------------------------------------------------------------------------|
 E|----------------------------------------------------------------------------|x4

Riff 5
 e|--------------------------------------------------------------------------------------|
 B|-17--17-17-17-17--15--13--------------------------------------------------------------|
 G|-------------------------16--16-16-16-16--14--12---14--14-14-14--16-14----------------|
 D|-----------------------------------------------------------------------14--14-14-14---|
 A|--------------------------------------------------------------------------------------|
 E|--------------------------------------------------------------------------------------|

Riff 6
 e|----------------------------------------------------------------------------|
 B|---5---5-5-5----------------------------------------------------------------|
 G|-------------7-5-4---4-4-4--------------------------------------------------|
 D|---------------------------7-5----------------------------------------------|
 A|----------------------------------------------------------------------------|
 E|----------------------------------------------------------------------------|

 e|----------------------------------------------------------------------------|
 B|----------------------------------------------------------------------------|
 G|----------------------------------------------------------------------------|
 D|---7---7-7-9-7--------------------------------------------------------------|
 A|---------------7---7-7-7----------------------------------------------------|
 E|----------------------------------------------------------------------------|

Riff 7
 e|----------------------------------------------------------------------------|
 B|----------------------------------------------------------------------------|
 G|--------------2s4s-2--------------------------------------------------------|
 D|---------2-4-5-------5------------------------------------------------------|
 A|---2-4-6--------------------------------------------------------------------|
 E|----------------------------------------------------------------------------|x4

Riff 8
 e|----------------------------------------------------------------------------|
 B|----------------------------------------------------------------------------|
 G|----------------------------------------------------------------------------|
 D|---------2-4-5--------------------------------------------------------------|
 A|---2-4-6--------------------------------------------------------------------|
 E|----------------------------------------------------------------------------|x4

 e|----------------------------------------------------------------------------|
 B|----------------------------------------------------------------------------|
 G|----------------------------------------------------------------------------|
 D|---2------------------------------------------------------------------------|
 A|----------------------------------------------------------------------------|
 E|----------------------------------------------------------------------------|

Riff 9
 e|--------------15-17s19s17-15------------------------------------------------|
 B|------16-17-19--------------------------------------------------------------|
 G|-16-18----------------------------------------------------------------------|
 D|----------------------------------------------------------------------------|
 A|----------------------------------------------------------------------------|
 E|----------------------------------------------------------------------------|x2

Riff 10
 e|--------------15------------------------------------------------------------|
 B|------16-17-19--------------------------------------------------------------|
 G|-16-18----------------------------------------------------------------------|
 D|----------------------------------------------------------------------------|
 A|----------------------------------------------------------------------------|
 E|----------------------------------------------------------------------------|x4
 
 e|----------------------------------------------------------------------------|
 B|--17------------------------------------------------------------------------|
 G|----------------------------------------------------------------------------|
 D|----------------------------------------------------------------------------|
 A|----------------------------------------------------------------------------|
 E|----------------------------------------------------------------------------|

 Riff 11
 e|--------------15--17--18--19--20--21--22--22b---------------------------------|
 B|------16-17-19----------------------------------------------------------------|
 G|-16-18------------------------------------------------------------------------|
 D|------------------------------------------------------------------------------|
 A|------------------------------------------------------------------------------|
 E|------------------------------------------------------------------------------|

  Riff 12
 e|----------------------------------------------------------------------------|
 B|---5-5----------------------------------------------------------------------|
 G|-------7-5-5v-4-2-4-4v--2v--------------------------------------------------|
 D|---------------------------5-5v--4-2----------------------------------------|
 A|----------------------------------------------------------------------------|
 E|----------------------------------------------------------------------------|

 e|----------------------------------------------------------------------------|
 B|-17-17----------------------------------------------------------------------|
 G|------19-17-17v-16-14-14v-12------------------------------------------------|
 D|----------------------------15-15v-14-12------------------------------------|
 A|----------------------------------------------------------------------------|
 E|----------------------------------------------------------------------------|

 e|----------------------------------------------------------------------------|
 B|---5-5----------------------------------------------------------------------|
 G|-------7-5-5v-4-2-4-4v--2v--------------------------------------------------|
 D|---------------------------5-5v--4-2----------------------------------------|
 A|----------------------------------------------------------------------------|
 E|----------------------------------------------------------------------------|

 e|----------------------------------------------------------------------------|
 B|-17-17----------------------------------------------------------------------|
 G|------19-17-17v-16-14-14v-12------------------------------------------------|
 D|----------------------------15-15v-14-12------------------------------------|
 A|----------------------------------------------------------------------------|
 E|----------------------------------------------------------------------------|

 e|----------------------------------------------------------------------------|
 B|----------------------------------------------------------------------------|
 G|----------------------------------------------------------------------------|
 D|----------------------------------------------------------------------------|
 A|---2------------------------------------------------------------------------|
 E|---0------------------------------------------------------------------------|

Then back to Riff 2
 e|----------------------------------------------------------------------------|
 B|----------------------------------------------------------------------------|
 G|---9-9---9------------------------------------------------------------------|
 D|-------9---9-9--------------------------------------------------------------|
 A|----------------------------------------------------------------------------|
 E|----------------------------------------------------------------------------|x4

Riff 13
 e|----------------------------------------------------------------------------|
 B|--15b-15v-12b-12v-----------------------------------------------------------|
 G|----------------------------------------------------------------------------|
 D|----------------------------------------------------------------------------|
 A|----------------------------------------------------------------------------|
 E|----------------------------------------------------------------------------|x4
 
 e|--19b-19v-17v---------------------------------------------------------------|
 B|-------------20b-20v--------------------------------------------------------|
 G|----------------------------------------------------------------------------|
 D|----------------------------------------------------------------------------|
 A|----------------------------------------------------------------------------|
 E|----------------------------------------------------------------------------|x4

Then play Riff 5
 e|--------------------------------------------------------------------------------------|
 B|-17--17-17-17-17--15--13--------------------------------------------------------------|
 G|-------------------------16--16-16-16-16--14--12---14--14-14-14--16-14----------------|
 D|-----------------------------------------------------------------------14--14-14-14---|
 A|--------------------------------------------------------------------------------------|
 E|--------------------------------------------------------------------------------------|

Then Play Riff 6
 e|----------------------------------------------------------------------------|
 B|---5---5-5-5----------------------------------------------------------------|
 G|-------------7-5-4---4-4-4--------------------------------------------------|
 D|---------------------------7-5----------------------------------------------|
 A|----------------------------------------------------------------------------|
 E|----------------------------------------------------------------------------|


Then Play Riff 5
 e|--------------------------------------------------------------------------------------|
 B|-17--17-17-17-17--15--13--------------------------------------------------------------|
 G|-------------------------16--16-16-16-16--14--12---14--14-14-14--16-14----------------|
 D|-----------------------------------------------------------------------14--14-14-14---|
 A|--------------------------------------------------------------------------------------|
 E|--------------------------------------------------------------------------------------|

Riff 14        1/2
 e|-15-14-15----17b-15--15v-22v-22b--------------------------------------------|
 B|----------17-------17-------------------------------------------------------|
 G|----------------------------------------------------------------------------|
 D|----------------------------------------------------------------------------|
 A|----------------------------------------------------------------------------|
 E|----------------------------------------------------------------------------|

Then Play Riff 5
 e|--------------------------------------------------------------------------------------|
 B|-17--17-17-17-17--15--13--------------------------------------------------------------|
 G|-------------------------16--16-16-16-16--14--12---14--14-14-14--16-14----------------|
 D|-----------------------------------------------------------------------14--14-14-14---|
 A|--------------------------------------------------------------------------------------|
 E|--------------------------------------------------------------------------------------|

Then Play Riff 9
 e|--------------15-17s19s17-15------------------------------------------------|
 B|------16-17-19--------------------------------------------------------------|
 G|-16-18----------------------------------------------------------------------|
 D|----------------------------------------------------------------------------|
 A|----------------------------------------------------------------------------|
 E|----------------------------------------------------------------------------|x2

Then Play Riff 10
 e|--------------15------------------------------------------------------------|
 B|------16-17-19--------------------------------------------------------------|
 G|-16-18----------------------------------------------------------------------|
 D|----------------------------------------------------------------------------|
 A|----------------------------------------------------------------------------|
 E|----------------------------------------------------------------------------|x4
 
 e|----------------------------------------------------------------------------|
 B|--17------------------------------------------------------------------------|
 G|----------------------------------------------------------------------------|
 D|----------------------------------------------------------------------------|
 A|----------------------------------------------------------------------------|
 E|----------------------------------------------------------------------------|


Then Play Riff 14
 e|-15-14-15----17b-15--15v-22v-22b--------------------------------------------|
 B|----------17-------17-------------------------------------------------------|
 G|----------------------------------------------------------------------------|
 D|----------------------------------------------------------------------------|
 A|----------------------------------------------------------------------------|
 E|----------------------------------------------------------------------------|
(At 22b do 4 bends)


 Riff 15
 e|----------------------------------------------------------------------------|
 B|----------------------------------------------------------------------------|
 G|----------------------------------------------------------------------------|
 D|---7-5-3-2------------------------------------------------------------------|
 A|---7-5-3-2------------------------------------------------------------------|
 E|----------------------------------------------------------------------------|x2

 Riff 16
 e|-19-17-15-------------------------------------------------14-15-17----------|
 B|--------19-17-15----------------------------------13-15-17------------------|
 G|----------------17-16-14------------------12-14-16--------------------------|
 D|------------------------17-16-14--12-14-16----------------------------------|
 A|----------------------------------------------------------------------------|
 E|----------------------------------------------------------------------------|x4

 Riff 17
 e|--15v-(7)-17v-(7)-19v-(7)-22v-22b-------------------------------------------|
 B|----------------------------------------------------------------------------|
 G|----------------------------------------------------------------------------|
 D|----------------------------------------------------------------------------|
 A|----------------------------------------------------------------------------|
 E|----------------------------------------------------------------------------|

 Riff 18
 e|-15-14-12------------------------------------------------10-12-14-----------|
 B|---------15-13-12--------------------------------10-12-13-------------------|
 G|-----------------14-12-11-----------------9-11-12---------------------------|
 D|-------------------------14-12-10--9-10-12----------------------------------|
 A|----------------------------------------------------------------------------|
 E|----------------------------------------------------------------------------|x4

 Riff 19
 e|----------------------------------------------------------------------------|
 B|--12v-(7)-15v-(7)-17v-(7)-20v-22b-------------------------------------------|
 G|----------------------------------------------------------------------------|
 D|----------------------------------------------------------------------------|
 A|----------------------------------------------------------------------------|
 E|----------------------------------------------------------------------------|

END



************************************
Legend

b-Bend
v-Vibrato
(1)-Slide to or from
s-Slide  

************************************
Suggest correction
Creating personal tab
Creating personal tab
You can edit any tab online and save it as your Personal.

You can edit, replace or remove any tab part or add personal notes – all changes will be seen only by you.

Personal tabs can be accessed anytime from any device, even offline.
Learn more »
Give kudos to tab author, rate the tab!
1 2 3 4 5
comments
print report bad tab
guest
You may want to rate the tab now too:
select rating
Wanna post a correction for this tab? Suggest correction