Oops, an error
Loading. Please wait.

First Noel Tab

version 3
version 3

Whole song

Interactive

64 views 3 this week
no commentswrite comment
1 2 3 4 5
3 more votes to show rating
add to favorites
launch autoscroll
font size
0
reset
how to read this tab
guitar tuner
Autoscroll
slow
fast
+/-
esc
set tempo
stop
Help us to improve Ultimate-Guitar.com Take our survey!
×
Author
Tuning
D G C F A D
The First Noel, Trans-Siderian Orchestra
From the 1996 album: Christmas Eve and Other Stories
Arrangment:Paul O'Neill and Al Pitrelli
Key: c
Tempo: Traditional
Timing: 3/4
*NOTE Tune down 1 step (Low to High D, G, C, F, A, D)*

[Instrumental]
     G         C                   Em                 F9    Em    F
e|---0-------|-------------0--1--|-3----3-----5--7--|-8-----7-----------|
B|------3----|-1-----1--3--------|---------0--------|----------8--10----|
G|-----------|-------------------|------------------|----0--------------|
D|-----------|----2--------------|------------3--5--|-----------------7-|
A|-----------|-3-----------2-----|-2----------------|-8-----7-----8-----|
E|---3-------|-------------------|-0----------------|-------------------|
   Em                 F                        Em                Am          Fm/Ab
e|------------------|-8----------------------|--------------7--|-8-------------|
B|-8-----8--10--12--|--------12------10------|-8-----10--------|-------8-----6-|
G|----0-------------|------------10------10--|----9------9-----|----5-----5----|
D|------------------|----10------------------|-----------------|-7-----------6-|
A|-7--------9-------|-8----------------------|-----------------|---------------|
E|------------------|------------------------|-0---------------|---------------|
   C              G    C/G                 Em               F     Em    Dm/F
e|-0--0--0--0--------|-------------------|----------------|------------------|
B|-1--1--1--1--1-----|-------------------|----------------|------------------|
G|-4--2--0--------0--|-------------------|-0--------------|-5-----4--5--2----|
D|----------3--4--0--|-2--------0--2--3--|----2-----7--9--|----7-----------0-|
A|-------------------|-3-----------------|-2-----2--5--7--|-8-----7----------|
E|-------------------|----3--0-----------|----------------|-------------1----|
   Em               F9     Em   Am/C                G/B   Am/C  G7/F
e|----------------|--------------------|------------------|
B|-------------0--|-1------0-----------|-------------0----|
G|-0-----0--2-----|----0------0--2-----|-0-----2--------0-|
D|----2-----------|-3------2--------2--|----0-----2--3----|
A|----------2-----|--------------3-----|-2-----3----------|
E|-0--------------|--------------------|------------------|
   Am7        Fm/Ab C/G   G         C                   Em
e|----------------|-------0-------|-------------0--1--|-3-----------8--7--|
B|-1--------------|------------3--|-1-----1--3--------|-------3-----------|
G|-------0--------|---------------|-------------------|----0-----0--------|
D|----2--------3--|--2------------|----2--------------|-------------------|
A|-0--------0-----|---------------|-3-----------5-----|-2-----------------|
E|-------------4--|--3----3-------|-------------------|-0-----------------|
   A5                   D9/F#                Fsus2  Em     Em7
e|-5-----5--7--8--10--|-12----------12--10--|-8------7-----------|
B|----5---------------|---------10----------|-----8-----8--10----|
G|--------------------|-----11--------------|-10-----9---------7-|
D|-7-----------6------|---------------------|--------------9-----|
A|----------------10--|-9---------------10--|--------------------|
E|--------------------|---------------------|--------------------|
   C5/G  Dm    Bdim    F5    C/E   G7
e|-------5-----7-----|-8-----------1----|
B|-8--------6-----6--|----6--8--------1-|
G|----5--7-----4-----|----------5--0----|
D|-5-----------------|------------------|
A|-------------------|-8-----7----------|
E|-------------------|------------------|
Suggest correction
Give kudos to tab author, rate the tab!
1 2 3 4 5
comments
print report bad tab
guest
You may want to rate the tab now too:
select rating
Wanna post a correction for this tab? Suggest correction