Oops, an error
Loading. Please wait.

First Snow Tab

version 1
version 1

Whole song

Interactive

6,247 views 3 this week
no commentswrite comment
1 2 3 4 5
please rate
add to favorites
launch autoscroll
font size
0
reset
how to read this tab
guitar tuner
Autoscroll
slow
fast
+/-
esc
set tempo
stop
Help us to improve Ultimate-Guitar.com Take our survey!
×
Song: First Snow
Artist: Trans-Siberian Orchestra
Album: Christmas Eve and Other Stories (1996)

Tabbed By: Thomas




Play Two Times, Clean Acoustic, 0:00-0:19
---5------5------3------5----|
--7-7----5-5----3-3----5-5---|
-7---7--6---5--4---4--6---6--|
0------0------0------0-------|
--Omit Last Note On Repeat---|
--Hold Second To Last Note---|  

Play Six Times, Distorted Electric, 0:20-1:02
-----------------------------------------------------------|
(7)—(5)—(7)---(3)-(5)-(7|7|5|7)--7---5---7-----3---5---7-7-|
-7---6---7-----4---6---7-7-6-7---7---6---7-----4---6---7-7-|
-0-0-0-0-0-0-0-0-0-0-0-0-0-0-0-0-0-0-0-0-0-0-0-0-0-0-0-0-0-|
---------Add Parenthesized Notes After Second Time --------|
------------------Palm Muted First Time--------------------|

Play Once, Clean Acoustic, 1:03-1:10
--1--1-----3--3-------0---3-2-0----------|
---1--1-----3--3---0---0--------3---3----|
----2--2-----4--4---2---2---------2------|
3--------5-----------2-------------------|
------------------0----------------------|
-----------------------------------------|

Play Once, Clean Acoustic Notes, Distorted Chords, 1:11-1:17
--1--1-----3--3--------------------------|
---1--1-----3--3-------------------------|
----2--2-----4--4------------------------|
3--------5--------2-2-2-2--2-------------|
------------------0-050-0-50-------------|
---------------------3----3--------------|

Play Four Times, Distorted Electric, 1:18-1:46
-----------------------------------------------------------|
-7-—-5-—-7-----3---5---7-7-5-7---7---5---7-----3---5---7-7-|
-7---6---7-----4---6---7-7-6-7---7---6---7-----4---6---7-7-|
-0-0-0-0-0-0-0-0-0-0-0-0-0-0-0-0-0-0-0-0-0-0-0-0-0-0-0-0-0-|
-----------------------------------------------------------|
-----------------------------------------------------------|

Play Once, Clean Acoustic, 1:47-1:54
--1--1-----3--3-------0---3-2-0----------|
---1--1-----3--3---0---0--------3---3----|
----2--2-----4--4---2---2---------2------|
3--------5-----------2-------------------|
------------------0----------------------|
-----------------------------------------|

Play Once, Clean Acoustic Notes, Distorted Chords, 1:55-2:01
--1--1-----3--3--------------------------|
---1--1-----3--3-------------------------|
----2--2-----4--4------------------------|
3--------5--------2-2-2-2--2-------------|
------------------0-050-0-50-------------|
---------------------3----3--------------|


Play Four Times, Distorted Electric, 2:02-2:31
----------------------------------------|
----------------------------------------|
7---9---10---12-10-9-10-9---------------|
7---9---10----------------12-10-8-10----|
5---7---8-------------------------------|
----------------------------------------|

Play Once, Distorted Electric, 2:32-2:39
-------------------|
-------------------|
-------------------|
7----5----7--7777--|
7----5----7--7777--|
5----3----5--5555--|

Play Six Times, Distorted Electric, 2:40-3:21
-----------Omit Underlined Part Sixth Time-----------------|
(7)—(5)—(7)---(3)-(5)-(7|7|5|7)--7---5---7-----3---5---7-7-|
-7---6---7-----4---6---7-7-6-7---7---6---7-----4---6---7-7-|
-0-0-0-0-0-0-0-0-0-0-0-0-0-0-0-0-0-0-0-0-0-0-0-0-0-0-0-0-0-|
---------Add Parenthesized Notes After Second Time --------|
------------------Palm Muted First Time--------------------|

Play Once, Distorted Electric, 3:22-52
---5---5-------5---5-------5-------------5-----------------------|
----5-5-5-5-----5-5-5-5------5------5----------5--------------5--|
--7--2---2----7--2---2----7-----2---------------------2----------|
5-7---------5-7---------5-7--------------------------------------|
5-5---------5-5---------5-5--------------------------------------|
3-----------3-----------3----------------------------------------|
Suggest correction
Give kudos to tab author, rate the tab!
1 2 3 4 5
comments
print report bad tab
guest
You may want to rate the tab now too:
select rating
Please do not post tabs as comments. Select "correction" instead!