Oops, an error
Loading. Please wait.

O Holy Night Tab

version 2
version 2

Whole song

Interactive

130 views 36 this week
no commentswrite comment
1 2 3 4 5
3 more votes to show rating
add to favorites
launch autoscroll
font size
0
reset
how to read this tab
guitar tuner
Autoscroll
slow
fast
+/-
esc
set tempo
stop
Help us to improve Ultimate-Guitar.com Take our survey!
×
Author
Difficulty
intermediate
O Holy Night, Trans-Siberian Orchestra
From the 1996 album: Christmas Eve and Other Stories
Music by: Adolphe Charles Adam
Arranged by: Paul O'Neill and Al Pitrelli
Tempo: Traditional
Key: C
Timing: 3/4

*NOTE: The low E, 6th string, is tuned down to a C.
It is played open except in measures 37, 41 and 65.
Then a Em is played at the 4th fret, holding the 6th
String at the 4th fret.*

[Instrumental]

   C9
e|-0----------------|-0----------------|-0----------------|-0----------------|
B|----3-----------3-|----3-----------3-|----3-----------3-|----3-----------3-|
G|-------5-----5----|-------5-----5----|-------5-----5----|-------5-----5----|
D|----------5-------|----------5-------|----------5-------|----------5-------|
A|------------------|------------------|------------------|------------------|
E|-0----------------|------------------|------------------|------------------|
   C9
e|-0----------------|-0----------------|-0----------------|-0----------------|
B|----3-----------3-|----3-----------3-|----3-----------3-|----3-----------3-|
G|-------5-----5----|-------5-----5----|-------5-----5----|-------5-----5----|
D|----------5-------|----------5-------|----------5-------|----------5-------|
A|------------------|------------------|------------------|------------------|
E|------------------|------------------|------------------|------------------|
   C9
e|-0----------------|-0--------------1----|-3----------------|-3--------------3----|
B|----3-----------3-|----3--------------1-|----3-----------3-|----3--------------3-|
G|-------5-----5----|-------5-----5-------|-------5-----5----|-------5-----5-------|
D|----------5-------|----------5----------|----------5-------|----------5----------|
A|------------------|---------------------|------------------|---------------------|
E|-0----------------|---------------------|------------------|---------------------|
   F                                  C9
e|-5-----------5----|-------------5-|-8-------------------|-8-------------------|
B|----6-------------|-6-------------|---------------------|---------------------|
G|-------5--------5-|----5-----5----|--------7------7-----|--------7------7-----|
D|----------7-------|-------7-------|----10-----10-----10-|----10-----10-----10-|
A|-8----------------|---------------|---------------------|---------------------|
E|------------------|---------------|-0-------------------|---------------------|
   C9                        G5     C9
e|---------------------|----------|------------------|-0-------------|
B|-8-------------8-----|----------|-------------3----|----3--------6-|
G|--------7------------|-9---7----|-5-----5--------5-|-------5-------|
D|----10-----10-----10-|-----5----|----5-----5-------|----------5----|
A|---------------------|----------|------------------|---------------|
E|---------------------|----------|-0----------------|---------------|
   Fsus2              Em      G/B  C9
e|-3-----------3----|-3-----0----|-0----------------|-0----------------|
B|----1-----1-----1-|----------3-|----3-----------3-|----3-----------3-|
G|-------0----------|----0-------|-------5-----5----|-------5-----5----|
D|-3----------------|-2----------|----------5-------|----------5-------|
A|------------------|----------2-|------------------|------------------|
E|------------------|------------|-0----------------|------------------|
   C9
e|-0----------------|-0----------------|-0----------------|-0--------------1----|
B|----3-----------3-|----3-----------3-|----3-----------3-|----3--------------1-|
G|-------5-----5----|-------5-----5----|-------5-----5----|-------5-----5-------|
D|----------5-------|----------5-------|----------5-------|----------5----------|
A|------------------|------------------|------------------|---------------------|
E|------------------|------------------|-0----------------|---------------------|
   C9                                    F
e|-3----------------|-3----------------|-5-----------5----|-------------5-|
B|----3-----------3-|----3-----------3-|----6-------------|-6-------------|
G|-------5-----5----|-------5-----5----|----------5-------|----5-----5----|
D|----------5-------|----------5-------|-------7--------7-|-------7-------|
A|------------------|------------------|-8----------------|---------------|
E|------------------|------------------|------------------|---------------|
   C9
e|-8-------------------|-8-------------------|---------------------|-----------|
B|---------------------|---------------------|-8-------------8-----|---7---5---|
G|--------7------7-----|--------7------7-----|--------7------------|-----------|
D|----10-----10-----10-|----10-----10-----10-|----10-----10-----10-|-----------|
A|---------------------|---------------------|---------------------|-----------|
E|-0-------------------|---------------------|---------------------|-----------|
   Em                               B/F#
e|-7----------------|-7---3---5---|-7----------------|-7-----8-----7-|
B|----0--------0----|-----5---7---|----------------7-|----7----------|
G|----------0-----0-|-------------|----8--------8----|----------8----|
D|-------5----------|-------------|----------9-------|---------------|
A|------------------|-------------|-9-----9----------|---------------|
E|-4----------------|-------------|------------------|---------------|
   Em                                 Em9/F#          Em/G
e|-7-------------|-7--------------7-|-7-----------7-|-7--------0-|
B|----------0----|----0-------------|----------0----|-------0----|
G|-------0-----0-|-------0-----0----|-------0-------|----0-------|
D|----5----------|----------5-------|-4--4----------|-5----------|
A|---------------|------------------|---------------|------------|
E|-4-------------|------------------|---------------|------------|
   G7                 G9              G5                 G7
e|-3--------------3-|-5-----------5-|------------------|-3-------------|
B|----6--------6----|----6----------|-3-----------6----|-------6-------|
G|----------7-------|----------7----|----7-----7-----7-|----------7----|
D|-5-----5----------|-5-----5-------|-5-----5----------|----5--------5-|
A|------------------|---------------|------------------|---------------|
E|------------------|---------------|------------------|---------------|
   C6                   C                    C6                   C
e|--------------------|-8-----------------|---------------10----|----------------|
B|-10------------8----|----8---------8----|-10------------------|-8------------8-|
G|-----9------9-----9-|-----------9-----9-|-----9------9------9-|----9------9----|
D|--------10----------|-------10----------|-10-----10-----------|-------10-------|
A|--------------------|-------------------|---------------------|----------------|
E|-0------------------|-------------------|---------------------|----------------|
   G7                 G9              G5                 G7
e|-------------3----|-5-----------5-|------------------|-3-------------|
B|----6-----------6-|----6----------|-3-----------6----|-------6-------|
G|----------7-------|----------7----|----7-----7-----7-|----------7----|
D|-5-----5----------|-5-----5-------|-5-----5----------|----5--------5-|
A|------------------|---------------|------------------|---------------|
E|------------------|---------------|------------------|---------------|
   C6                   C
e|--------------------|-8------------------|-------------------|----------------|
B|-10------------8----|----8---------------|-8------------8----|-8------------8-|
G|-----9------9-----9-|-------9------9-----|----9------9-----9-|----9------9----|
D|--------10----------|----------10-----10-|-------10----------|-------10-------|
A|--------------------|--------------------|-------------------|----------------|
E|-0------------------|--------------------|-------------------|----------------|
   Am9
e|-8-----------8----|-8-----------8----|-8-----------8-|-7--------5-|
B|----0-----------0-|----0-----------0-|----0----------|------------|
G|----------5-------|----------5-------|----------5----|------------|
D|-------7----------|-------7----------|-------7-------|----7--7----|
A|-0----------------|-0----------------|-0-------------|-0----------|
E|------------------|------------------|---------------|------------|
   Em                                                       Em9
e|-7-----------7----|-7-----------7----|-7-----------7----|---------------|
B|----0-----------0-|----0-----------0-|----0-----------0-|-------0-------|
G|----------0-------|----------0-------|----------0-------|-------------4-|
D|-------5----------|-------5----------|-5-----5----------|----4-----7----|
A|------------------|------------------|------------------|-7-------------|
E|-4----------------|------------------|------------------|---------------|

    Dm
e|-------------10-----|-----------------10-----|-10-----------------|--------------------|
B|-10-----------------|-----10--------------10-|-------------10-----|-10--------------10-|
G|-10------10------10-|-------------10---------|---------10------10-|-----10------10-----|
D|-12--12-------------|-12------12-------------|-----12-------------|---------12---------|
A|--------------------|------------------------|--------------------|--------------------|
E|--------------------|------------------------|--------------------|--------------------|
   Am                 Am9                Am                 Am9
e|-8-----------8----|-7-----------7----|-5-----------5----|-7-----------7-|
B|----5-----5-----5-|----5-----5-----5-|----5-----5-----5-|----5----------|
G|-------5----------|-------5----------|-------5----------|----------5----|
D|------------------|------------------|------------------|---------------|
A|-0----------------|-0----------------|-0----------------|-0-----0-------|
E|------------------|------------------|------------------|---------------|
    C                                            G/B
e|-12--------------12-----|-12-----------------|-10----------------|---10-------|
B|---------------------13-|-----13----------13-|-----8--------8----|---------8--|
G|-----12------12---------|-------------12-----|-----------7-----7-|------------|
D|---------14-------------|---------14---------|-9------9----------|------------|
A|------------------------|--------------------|-------------------|------------|
E|-0----------------------|--------------------|-------------------|------------|
   Am                                    F
e|-8-----------8----|-8-----------8----|-8-------------8-----|-------------|
B|----5-----5-----5-|----5-----5-----5-|---------------------|---12---10---|
G|-------5----------|-------5----------|----10------------10-|-------------|
D|------------------|------------------|-----------10--------|-------------|
A|-0----------------|------------------|-8------8------------|-------------|
E|------------------|------------------|---------------------|-------------|
   C9                                       F9
e|-------------------|--------------------|---------------------|--------------|
B|-8------------8----|-8------------8-----|-8-------------8-----|-10---------8-|
G|----7------7-----7-|----7------7-----10-|----10------------10-|--------10----|
D|-------10----------|--------------------|-----------10--------|--------------|
A|-------------------|-------10-----------|-8------8------------|-----8--------|
E|-0-----------------|--------------------|---------------------|--------------|
   C9
e|--------------------|-------------------|-------------------|---8--------------|
B|-8------------8-----|-8------------8----|-8------------8----|---8------------8-|
G|----7------7--------|----7------7-----7-|----7------7-----7-|------7------7----|
D|-------10--------10-|-------------------|-------------------|---------10-------|
A|--------------------|-------10----------|-------10----------|------------------|
E|-0------------------|-------------------|-------------------|---0--------------|
   G/B                  G/A                 G/C                  G/B
e|-10-----------10----|----------10-------|-----------10-------|----------10-------|
B|-----8------------8-|-------8------8----|--------8------8----|-------8------8----|
G|-----------7--------|----7------------7-|-----7------------7-|----7--------------|
D|-9------9-----------|-7-----------------|-10-----------------|-9-----------------|
A|--------------------|-------------------|--------------------|-------------------|
E|--------------------|-------------------|--------------------|-----------------0-|
   C                                                  F
e|-15--------------15-----|-15--------------15-----|-----------------------|-13--12--10-|
B|-----13--------------13-|-----13-----------------|-----------------13----|------------|
G|-------------12---------|-------------12---------|-----14------14--------|------------|
D|---------14-------------|---------14----------15-|-15------15---------15-|------------|
A|------------------------|------------------------|-----------------------|------------|
E|-0----------------------|------------------------|-----------------------|------------|
   C5                                  G/B                            C9
e|-8------------8----|-8---------8----|-7-----------7-|-------8--10-|-0----------------|
B|----8------8-----8-|--------8-----8-|----8----------|-------------|----3-----------3-|
G|-------------------|----------------|----------7----|-------9--10-|-------5-----5----|
D|-------10----------|----10----------|-9-----9-------|-9p-7--------|----------5-------|
A|-------------------|----------------|---------------|-------------|------------------|
E|-0-----------------|----------------|---------------|-------------|-0----------------|
   C9                                                         C9
e|-0----------------|-0----------------|-0----------------|---8---|
B|----3-----------3-|----3-----------3-|----3-----------3-|---8---|
G|-------5-----5----|-------5-----5----|-------5-----5----|---5---|
D|----------5-------|----------5-------|----------5-------|-------|
A|------------------|------------------|------------------|-------|
E|------------------|------------------|------------------|---0---|



************************************

| p  Pull-off

************************************
Suggest correction
Give kudos to tab author, rate the tab!
1 2 3 4 5
comments
print report bad tab
guest
You may want to rate the tab now too:
select rating
Wanna post a correction for this tab? Suggest correction