Oops, an error
Loading. Please wait.

Post Script Midnight Clear Tab

25 views 3 this week
no commentswrite comment
1 2 3 4 5
2 more votes to show rating
add to favorites
launch autoscroll
font size
0
reset
how to read this tab
guitar tuner
Autoscroll
slow
fast
+/-
esc
set tempo
stop
Help us to improve Ultimate-Guitar.com Take our survey!
×
Author
Tuning
D G C F A D
Post script:Midnight Clear, Trans-Siberian Orchestra
From the 2004 album: The Lost Christmas Eve
Music: Paul O'Neill
Tempo: Moderately
BPM: 112
Key: E
Timing: 3/4
Tuning: Down 1 Whole Step, Low to High
[D G C F A D]  Hybrid Picking (W/Pick and Fingers)


[Intro]

D|------12+--------------|-------12+-------------|
A|---0----------12+------|----0---------12+------|
F|----------11-------11--|----------11-------11--|
C|-----------------------|-----------------------|
G|-----------------------|-----------------------|
D|-0---------------------|--0--------------------|

D|------12+---------------|-------12+--------------|
A|---0----------12+-------|----0----------12+------|
F|----------11-------11---|-----------11-------11--|
C|------------------------|------------------------|
G|------------------------|------------------------|
D|-0----------------------|--0---------------------|

D|------12+---------------|-------12+--------------|
A|---0----------12+-------|----0----------12+------|
F|----------11-------11---|-----------11-------11--|
C|------------------------|------------------------|
G|------------------------|------------------------|
D|-0----------------------|--0---------------------|

D|-------12+--------------|-------12+--------------|-------------|
A|----0----------12+------|----0----------12+------|-------------|
F|-----------11-------11--|-----------11-------11--|------4------|
C|------------------------|------------------------|-------------|
G|------------------------|------------------------|-------------|
D|--0---------------------|--0---------------------|-------------|


[A]

D|-4-------------|-7-------------|-------0----------|------------------|
A|-------------5-|-------5-------|-0-----------2----|-0-----------0----|
F|-------4-------|----6--------6-|------------------|------------------|
C|---------------|---------------|----2-----0-------|----2-----2-----0-|
G|-7--7-----7----|-0--------0----|-------------0--0-|-------2----------|
D|---------------|---------------|-0----------------|-0----------------|

D|-------------5-|-------2-----4----|-0----------------|------------------|
A|-2-----4-------|-5--2-------------|----4-----0-------|------------------|
F|----2-----2----|-3--------3-----3-|-------6----------|----------------4-|
C|---------------|------------------|-------------7--6-|-4----------------|
G|-0-------------|------------------|------------------|----7--6--4-------|
D|---------------|------------------|------------------|-------------7----|

D|-4-------------|-------5-------|---------------|------------------|
A|----5--------5-|-7-------------|-0-----0-----2-|-0-----------0----|
F|-------4-------|----6--------6-|----------1----|------------------|
C|---------------|---------------|----2----------|----2-----2-----0-|
G|----------7----|-0--------0----|-------------0-|-------2----------|
D|-7-------------|---------------|-0-------------|-0----------------|

D|---------------|------------------|-------------7----|-12-----4---|
A|-2-----------2-|-4-----2-----0----|-------9----------|------------|
F|----2-----2----|----4-------------|----------9-----9-|------------|
C|---------------|-4--------4-----0-|----9-------------|------------|
G|-0-----0-------|------------------|-7----------------|------------|
D|---------------|------------------|------------------|------------|


[B]

D|-4----------------|-------------|---------------|-4-----------4---|
A|----4-------------|-------------|-5-----5-----7-|----5------------|
F|-------5----------|-------------|---------------|----------4------|
C|----------6-------|-6---8---10--|----6-----6----|-----------------|
G|----------------6-|-------------|-4-----4-----6-|-7-----7---------|
D|-4-----------4----|-4---8---11--|---------------|-----------------|

D|-------0-----4--|-------------------|-------0-----------|-------0----------|
A|----4-----------|-2-----4-----2-----|-4-----------4-----|-------------4----|
F|----------------|----2-----------2--|----4-----4-----4--|----4-----4-----4-|
C|-4--------4-----|-2--------2--------|-4-----------------|------------------|
G|----------------|-------------------|-------------------|-0----------------|
D|----------------|-------------------|-------------------|------------------|

D|-4-------------|---------------------|---------------|
A|----5--------5-|----7-------5--------|-0-----0-----2-|
F|-------4-------|-------6----------6--|---------------|
C|---------------|---------------------|----2-----0----|
G|-7--------7----|---------------0-----|-------------0-|
D|---------------|----0----------------|-0-------------|

D|-------------------|-------12+-------------|-------12+-------------|
A|-0-----------0-----|----0----------12+-11--|----0----------12+-11--|
F|-------------------|-----------11----------|-----------11----------|
C|----2-----2-----0--|-----------------------|-----------------------|
G|-------2-----------|-----------------------|-----------------------|
D|-0-----------------|-0---------------------|-0---------------------|

D|-------12+-------------|-------12+-------------|--------12+-------------|
A|----0----------12+-11--|----0----------12+-11--|----------------12+-11--|
F|-----------11----------|-----------11----------|----11------11----------|
C|-----------------------|-----------------------|------------------------|
G|-----------------------|-----------------------|------------------------|
D|-0---------------------|-0---------------------|-0----------------------|

D|--------12+-------------|--------12+-------------|-----12+------|
A|----------------12+-11--|----------------12+-11--|--------------|
F|----11------11----------|----11------11----------|--------------|
C|------------------------|------------------------|--------------|
G|------------------------|------------------------|--------------|
D|-0----------------------|-0----------------------|-----12+------|


************************************

| +   Artificial harmonic

************************************
Suggest correction
Give kudos to tab author, rate the tab!
1 2 3 4 5
comments
print report bad tab
guest
You may want to rate the tab now too:
select rating
Wanna post a correction for this tab? Suggest correction